Song name
# A B C D E F G H I J K L M N O P Q R S T U V W X Y Z

Stone Gods - Defend Or Die tab

-------------------------------------------------------------------------------
			     Defend or Die - Stone Gods
-------------------------------------------------------------------------------
Tabbed by: Sam Mezec
Email: smezec@hotmail.com

Tuning: Drop C Sharp

Intro:
eb|-----------------------------------------------|
Bb|-----------------------------------------------|
F#|-----------------------------------------------|
Db|-7-7-7-7-7-7-7-7--10----7-7-7-7-7-7-7-7--10----| X2
Ab|-5-5-5-5-5-5-5-5--8-----5-5-5-5-5-5-5-5--8-----|
Db|-----------------------------------------------|

eb|-------------------------------------------------|
Bb|-------------------------------------------------|
F#|-------------------------------------------------|
Db|-7-7-7-7-7-7-7-7--10---7-7-7-7-7-7---------------|
Ab|-5-5-5-5-5-5-5-5--8----5-5-5-5-5-5--8-7-5-8-7-5--|
Eb|-------------------------------------------------|

eb|------------------------------------------------|
Bb|------------------------------------------------|
F#|------------------------------------------------|
Db|-----------------------------------5-6-6-6-6-6--|
Ab|-8-8-8-8-8-7-5-5-5-5-5-7-8-8-8-8-8-3-4-4-4-4-4--| X2
Eb|-8-8-8-8-8-7-5-5-5-5-5-7-8-8-8-8-8--------------|

At 3'07'' its:

Eb|------------------------------------------|
Bb|------------------------------------------|
F#|------------------------------------------|
Db|-7---7-7-7-7---7-7-7-7---7-7-7-5-5-5-5-5--| X2
Ab|-5---5-5-5-5---5-5-5-5---5-5-5-3-3-3-3-3--|
Db|------------------------------------------|


Eb|-------------------------------------------|
Bb|-------------------------------------------|
F#|-------------------------------------------|
Db|-8---8-8-8-8---8-8-8-5---5-5-5-6--6-5-3-0--|
Ab|-8---8-8-8-8---8-8-8-5---5-5-5-6--6-5-3-0--|
Db|-8---8-8-8-8---8-8-8-5---5-5-5-6--6-5-3-0--|

Eb|-----|
Bb|-----|
F#|-----|
Db|--0--|
Ab|--0--|
Db|--0--| Whilst bending the bottom string from behind the nut like Iommi does in Iron Man

Eb|-------------------------------------------------|
Bb|-------------------------------------------------|
F#|-------------------------------------------------|
Db|-------------------------------------------------|
Ab|-------------------------------------------------|
Db|-0--0-0-0-3~-0--0-0-0-5~-0--0-0-0-3-0-0-0-6-5-3--|  X2


Then the backing for the solo is the same as the intro.

And thats all I have now!

Peace out.


| /  slide up
| \  slide down
| h  hammer-on
| p  pull-off
| ~  vibrato
| +  harmonic
| x  Mute note
===============================================================================
Tap to rate this tab
# A B C D E F G H I J K L M N O P Q R S T U V W X Y Z