Song name
# A B C D E F G H I J K L M N O P Q R S T U V W X Y Z

Stone Gods - Burn The Witch tab

This is not a complete Tab nor am i claiming it's 100%. This is what I've pickup
and what i play. any corrections please email me.

----------------------------------------------------------------
                   Burn the witch - Stone Gods
----------------------------------------------------------------
tabbed by: Funguy (wolfboy02001@yahoo.co.uk)
First draft
Not Complete
Tuning: Standard (EADGBe)
----------------------------------------------------------------
Tab Explained

PM.. = Palm Mute
  v  = Strum down
  ^  = Strum up
|------|
|O -- O|
|--------|    = repeat (once, unless marked otherwise)
|--------|
|O -- O|
|----------------------------------------------------------------|
-----------------------------------------------------------------|

Intro: (Incomplete)

Verse 1:
Part 1: x2
e|------------------------|         |----------------|
B|O -------------------- O|         |----------------|
G|------------------------|         |----------------|
D|---2---2-2-2-2-2225-----|         |-2---2-2-44-55--|
A|O -2---2-2-2-2-2225--- O|         |-2---2-2-44-55--|
E|---0---0-0-0-0-0003-----| x3      |-0---0-0-22-33--|
         PM..... v^v^                     PM. v^ v^

Part 2:
e|-------------------------------------------------------|
B|-------------------------------------------------------|
G|-2---2-2-2-2-2225--2--2-2-2-2-3334--4-4-4-4-4447-4-4-4-|
D|-2---2-2-2-2-2225--2--2-2-2-2-3334--4-4-4-4-4447-4-4-4-|
A|-0---0-0-0-0-0003--0--0-0-0-0-1112--2-2-2-2-2225-2-2-2-|
E|-------------------------------------------------------|
       PM..... v^v^     PM..... v^v^  PM..... v^v^ PM...

e|---------------------------------------------|
B|---------------------------------------------|
G|-4-3332--2-2-2-2-2222--2---2-----------------|
D|-4-3332--2-2-2-2-2222--2---2--6--5---5--4--3-|
A|-2-1110--0-0-0-0-0000--0---0--6--5---5--4--3-|
E|------------------------------4--3---3--2--1-|
   v v^v^  PM..... v^v^


Chorus: (Incomplete) Same as intro


Solo: (Incomplete)

Verse 2:
Part 1:
e|-----------------------------------------------------------------|
B|-----------------------------------------------------------------|
G|-----------------------------------------------------------------|
D|-2-2-2-2-2-2-2-2-2-2-2-2-2-2-2-2-2-2-2-2-2-2-2-2-2-2-2-2-44-55-8-|
A|-2-2-2-2-2-2-2-2-2-2-2-2-2-2-2-2-2-2-2-2-2-2-2-2-2-2-2-2-44-55-8-|
E|-0-0-0-0-0-0-0-0-0-0-0-0-0-0-0-0-0-0-0-0-0-0-0-0-0-0-0-0-22-33-6-|

Part 2:
e|------------------------|         |----------------|
B|O -------------------- O|         |----------------|
G|------------------------|         |----------------|
D|---2---2-2-2-2-2228-----|         |-2---2-2-44-55--|
A|O -2---2-2-2-2-2228--- O|         |-2---2-2-44-55--|
E|---0---0-0-0-0-0006-----| x3      |-0---0-0-22-33--|
         PM..... v^v^                     PM. v^ v^

Part 3:
e|-------------------------------------------------------|
B|-------------------------------------------------------|
G|-2---2-2-2-2-2225--2--2-2-2-2-3334--4-4-4-4-4447-4-4-4-|
D|-2---2-2-2-2-2225--2--2-2-2-2-3334--4-4-4-4-4447-4-4-4-|
A|-0---0-0-0-0-0003--0--0-0-0-0-1112--2-2-2-2-2225-2-2-2-|
E|-------------------------------------------------------|
       PM..... v^v^     PM..... v^v^  PM..... v^v^ PM...

e|---------------------------------------------|
B|---------------------------------------------|
G|-4-3332--2-2-2-2-2222--2---2-----------------|
D|-4-3332--2-2-2-2-2222--2---2--6--5---5--4--3-|
A|-2-1110--0-0-0-0-0000--0---0--6--5---5--4--3-|
E|------------------------------4--3---3--2--1-|
   v v^v^  PM..... v^v^

Chorus: (Incomplete) Same As Intro

Second Half: ("Break Down")

e|-------------------------------------------|
B|O --------------------------------------- O|
G|-------------------------------------------|
D|-------------------------------------------|
A|O ------5--------4--------3--3-2-0------- O|
E|--0-0-0----0-0-0----0-0-0----------3-2-0---|  x4
    PM...    PM...    PM...


BIT MISSING


e|--------------------|       |---------------|
B|O ---------------- O|       |---------------|
G|---9---11-12-10-----|       |-9---11-12-----|
D|----------------9---|       |-----------8-9-|
A|O ---------------- O|       |---------------|
E|--------------------|  x3   |---------------|


e|-------------------------------------------|
B|O --------------------------------------- O|
G|-------------------------------------------|
D|-------------------------------------------|
A|O ------5--------4--------3--3-2-0------- O|
E|--0-0-0----0-0-0----0-0-0----------3-2-0---|  x4
    PM...    PM...    PM...


BIT MISSING


e|--------------------|
B|O ---------------- O|
G|---9---11-12-10-----|
D|----------------9---|
A|O ---------------- O|
E|--------------------|  x2

Ending:

e|-------------------------------------|
B|O -----------------------------------|
G|-------------------------------------|
D|-------------------------------------|
A|O -----7-----6-----9-----8------9-10-|
E|---0-0---0-0---0-0---0-0---0-0-------|


e|-------------------------------------|
B|----------------------------------- O|
G|-------------------------------------|
D|-------------------------------------|
A|-----7-----6-----9-----8-9-10-9-10- O|
E|-0-0---0-0---0-0---0-0---------------|  x2

e|-----------------------------------|
B|-----------------------------------|
G|-----------------------------------|
D|-----------------------------------|
A|-----7-----6-----9-----8------9-10-|
E|-0-0---0-0---0-0---0-0---0-0-------|


e|------------------------|
B|------------------------|
G|------------------------|
D|------------------------|
A|-----7-----6-----9------|
E|-0-0---0-0---0-0---0-0--|       BIT MISSING


e|--------------------|
B|O ---------------- O|
G|---9---11-12-10-----|
D|----------------9---|
A|O ---------------- O|
E|--------------------|  x2

e|-----------------------------------|
B|-----------------------------------|
G|-----------------------------------|
D|-----------------------------------|
A|-----7-----6-----9-----8------9-10-|
E|-0-0---0-0---0-0---0-0---0-0-------|


e|-----------------------------------|
B|-----------------------------------|
G|-----------------------------------|
D|-----------------------------------|
A|-----7-----6-----9-----8-9-10-9-10-|
E|-0-0---0-0---0-0---0-0-------------|
Tap to rate this tab
# A B C D E F G H I J K L M N O P Q R S T U V W X Y Z