Song name
# A B C D E F G H I J K L M N O P Q R S T U V W X Y Z

Stone Gods - Magdalene Street tab

Band: Stone Gods
Track: Magdalene Street
Guitarist: Dan Hawkins
Album: Silver Spoons & Broken Bones

Tuning: Acoustic guitar in Drop D with a capo at 4th fret to match recorded key.

Intro Line:

e|--5---3-1-0--------|
b|------------3~~~~~~|
g|-------------------|
d|-------------------|
a|-------------------|
D|-------------------|

Verse

e|--1--1-1--1-1-/5--5-5--5-5--x5-5-5--5--5-3-5--1--1-1--1-1--0--0-0--0-0-5--5-5-5-5-7-|
b|--3--3-3--3-3--6--6-6--6-6--x6-5-6--3--3-3-3--3--3-3--3-3--1--1-1--1-1-3--3-3-3-3-5-|
g|--2--2-2--2-2--5--5-5--5-5--x5-5-5--3--3-3-3--2--2-2--2-2--2--2-2--2-2-3--3-3-3-3-5-|
d|--0--0-0--0-0---------------x7-5-7--3--3-3-3--0--0-0--0-0--2--2-2--2-2-3--3-3-3-3-5-|
a|--0--0-0--0-0---------------x5-5-5--3--3-3-3--0--0-0--0-0--0--0-0--0-0-3--3-3-3-3-5-|
D|--0--0-0--0-0---------------x-------3--3-3-3--0--0-0--0-0--------------3--3-3-3-3-5-|

Pre Chorus

e|-----------------------x-7--7-------------x-7--7-------------x-7--7-------------x-7--7|
b|-------------5----5----x-5--5---5----5----x-5--5---5----5----x-5--5---5----5----x-5--5|
g|--2--4--5--5-5--5-5-5--x-5--5-5-5--5-5-5--x-5--5-5-5--5-5-5--x-5--5-5-5--5-5-5--x-5--5|
d|-----------------------x-5--5-------------x-5--5-------------x-5--5-------------x-5--5|
a|--0--2--3--3-3--3-3-3--x-5--5-3-3--3-3-3--x-5--5-3-3--3-3-3--x-5--5-3-3--3-3-3--x-5--5|
D|-----------------------x-5--5-------------x-5--5-------------x-5--5-------------x-5--5|

Chorus

   D          Am          C      G/B  G  Gb/G  E5     Cadd9      D       Dsus4 D

e|-2--2-2-2-2-0--0-0-0-0--0--0-0-0-0-0-0-0-0-0-------0--0-0--0-0-2--2-2-2-3-2-|
b|-3--3-3-3-3-1--1-1-1-1--1--1-1-1-1-0-0-0-0-0-5-5-5-3--3-3--3-3-3--3-3-3-3-3-|
g|-2--2-2-2-2-2--2-2-2-2--0--0-0-0-0-0-0-0-0-0-4-4-4-0--0-0--0-0-2--2-2-2-2-2-|
d|-0--0-0-0-0-2--2-2-2-2--2--2-2-0-0-0-0-0-0-0-2-2-2-2--2-2--2-2-0--0-0-0-0-0-|
a|-0--0-0-0-0-0--0-0-0-0--3--3-3-2-2-0-0-0-0-0-2-2-2-3--3-3--3-3-0--0-0-0-0-0-|
D|-0--0-0-0-0-0------------------------5-5-4-0-2-2-2-------------0--0-0-0-0-0-|


Note: The "E5     Cadd9      D       Dsus4 D" part gets repeated a different amount of 
depending on what part of the song it is.

In the Leeders Farm demo, this chord sequence accompanies the outro solo.

This is a brilliant track! Buy the album if you don't have it!
Tap to rate this tab
# A B C D E F G H I J K L M N O P Q R S T U V W X Y Z