Song name
# A B C D E F G H I J K L M N O P Q R S T U V W X Y Z

Stone Gods - Oh Whereo My Beero tab

Help us improve GuitareTab! Take a short survey!
Song: Oh Whereo My Beero
Band: Stone Gods
Guitarist: Dan Hawkins
Album: Silver Spoons & Broken Bones

This is the closing track from their debut album. On a headlining gig, they use this 
to close their set.
I am only going to tab out the important bits, because I have only recently worked it out.


Main Riff
e|----------------------|
b|--------------(2)-----|
g|---------------2------|
d|---------------2------|
a|---4/5\4-p-0---0------|
e|-------------3--------|

Verse

A throughout with the addition of the Bm7 type chord without the root note.

Chorus

D
Ohh Whherreooo My Beerroooo

(on the last chorus, it modulates to E major and then to G major and then finally ends 
A)


Outro

Dan uses octaves to give the outro a real Eastern feel to it.

e|--------------------------------------------------|
b|--------------------------------------------------|
g|-10-10-10-7--7-7-10--9--9-9--6--6-6--3--3-3--2----|
d|--------------------------------------------(2)---|
a|-8---8--8-5--5-5--8--7--7-7--4--4-4--1--1-1--0----|
e|--------------------------------------------------|

There is another lead bit the goes after it

e|---------------------------------------|
b|--14-15-14-12-14-12-14-15-14-12-14-12--|
g|---------------------------------------|
d|---------------------------------------|
a|---------------------------------------|
e|---------------------------------------|


I advise you to go and see them live!
Related for Oh Whereo My Beero tab