Song name
# A B C D E F G H I J K L M N O P Q R S T U V W X Y Z

Stone Gods - Knight Of The Living Dead tab

-------------------------------------------------------------------------------
			   KNGIHT OF THE LIVING DEAD - Stone Gods
-------------------------------------------------------------------------------
Tabbed by:Drewsum
Email:drewsbak_notquite_drewcox@hotmail.co.uk

tHIS IS MY FIRST TAB SO I HOPE YOU LIKE IT. I COULDN'T WORK OUT THE RYTHM GUITAR
FOR THE CHORUS BECAUSE IT WAS SO QUIET!

Tuning:eBGDAD
INTRO/CHORUS
e|--------------------------10-------------------------------------------------|
B|---------------------8-10----------------------------------------------------|
G|7-9-10-10-9-7-7-9-10---------------------------------------------------------|
D|-----------------------------------------------------------------------------|
A|-----------------------------------------------------------------------------|
D|---------------------------------------------5b7-3-5b7-3-5b7--0--------------|

VERSE
e|---------------------------------------------------------------------------|
B|13-13-13--12-10----------13-13-13--12-7-----13-13-13--12-9----10-10-12-10-7|
G|12-12-12--12-10----------12-12-12--12-7-----12-12-12--12-9----10-10-12-10-7|
D|12-12-12--12-10----------12-12-12--12-7-----12-12-12--12-9----10-10-12-10-7|
A|---------------------------------------------------------------------------|
D|---------------------------------------------------------------------------|

PRE-CHORUS
e|---------------------------------------------------------------------------|
B|13-13-13--12---------------------------------------------------------------|
G|12-12-12--12---------------------------------------------------------------|
D|12-12-12--12-----------------------------3-3--------55555------------------|
A|-----------------------------------------3-3--------55555------------------|
D|-----------------------------------------3-3--------55555------------------|

BRIDGE
e|---------------------------------------------------------------------------|
B|---------------------------------------------------------------------------|
G|---------------------------------------------------------------------------|
D|0-00------------------------------3-5-3-0----------------------------------|
A|0-00------------------------------3-5-3-0----------------------------------|
D|0-00---------17-0-0-15h16---------3-5-3-0----------------------------------|

OUTRO PT.1
e|------------------------------------------------------------------------------|
B|------------------------------------------------------------------------------|
G|------------------------------------------------------------------------------|
D|0---3---5-7---10-12---10-12------------0~~~~~~~-------------------------------|
A|0---3---5-7---10-12---10-12---X9 THEN--0~~~~~~~--(X3 FOR OTHER 2 TIMES)-------|
D|00--33--5577--10H12---10H12------------0~~~~~~~-------------------------------|
ENDING TO OUTRO PT.1
e|---------------------------------------------------------------------------|
B|---------------------------------------------------------------------------|
G|---------------------------------------------------------------------------|
D|00000000----77777777-------------------------------------------------------|
A|00000000----77777777--X4---------------------------------------------------|
D|00000000----77777777-------------------------------------------------------|

OUTRO PT.2
e|---------------------------------------------------------------------------|
B|---------------------------------------------------------------------------|
G|---------------------------------------------------------------------------|
D|---------------------------------------------------------------------------|
A|---------------------------------------------------------------------------|
D|-0-0-0--3H4-0-0-0-5H6---(RANDOM PICK SCRAPING)-----------------------------|

OUTRO PT.3
e|---------------------------------------------------------------------------|
B|---------------------------------------------------------------------------|
G|---------------------------------------------------------------------------|
D|-----------------------------------------0~~~~~~~~~~~~---------------------|
A|------------------------------X8/9 THEN--0~~~~~~~~~~~~---------------------|
D|-000-00--3H4-000-00-5H6------------------0~~~~~~~~~~~~---------------------|

ORDER:
INTRO
VERSE X2
PRE CHORUS
CHORUS X2
VERSE
PRE CHORUS
CHORUS X2
BRIDGE X3
CHROUS X2
OUTRO PT.1
ENDING TO OUTRO PT.1
OUTRO PT.2 X4
OUTRO PT.3

| /  slide up
| \  slide down
| h  hammer-on
| p  pull-off
| ~  vibrato
| +  harmonic
| x  Mute note
===============================================================================
Tap to rate this tab
 
# A B C D E F G H I J K L M N O P Q R S T U V W X Y Z