Song name
# A B C D E F G H I J K L M N O P Q R S T U V W X Y Z

Stone Gods - Going Under tab

Track: Going Under
Artist Stone Gods
Album: TBC
Guitarists: Dan Hawkins and Richie Edwards

Tabbed by GezzyDiversion 15 Jun 2009

This is the new song that was aired at Download Festival 2009

If you are reading this after the second albums release, 
then I apologise in advance  but this is the transcription as played at Download.

I was unable to work out the lead parts because Dan's guitar was too low in the mix.

Tuning: Db Ab Db Gb Bb Eb

Intro

|------------------------------------------------|
|-3--3--3--3--3--3--3--3--3--3--3--3--3--3--3--3-|
|-2--0--0--0--2--0--0--0--2--0--0--0--2--0--0--0-|
|-0--5--3--5--0--5--3--5--0--5--3--5--0--5--3--5-|
|------------------------------------------------|
|------------------------------------------------|

Riff 1           this is played after the verses.

|-----------------------------------------|
|-----------------------------------------|
|-7---------------------------------------|
|-7--12-14-10-12-14-9--12-8-8-8-8-8-8-8-8-|
|-5--10-12-8--10-12-7--10-6-6-6-6-6-6-6-6-|
|-----------------------------------------|

Riff 2 (also Chorus)

|----------------------------------------|
|----------------------------------------|
|-7\------------------7\-----------------|
|-7\----x-3----5-6-7--7\----x-3----7-6-5-|
|-5\--0-x-3-0--5-6-7--5\--0-x-3-0--7-6-5-|
|-0---0-x-3-0--5-6-7--0---0-x-3-0--7-6-5-|

Bridge
                                       x2
|------------------------------------------|
|------------------------------------------|
|------------------------------------------|
|-12-12--8-8--5-5-5-5--12-12--8-8--5-5-5-5-|
|-12-12--8-8--5-5-5-5--12-12--8-8--5-5-5-5-|
|-12-12--8-8--5-5-5-5--12-12--8-8--5-5-5-5-|

Breakdown Section

|------------------------------------------------------------|
|------------------------------------------------------------|
|------------------------------------------------------------|
|-0---7-3---5-2---1-1-1-1-1-0----7-3---5-2-----------1-1-1-1-|
|-0---7-3---5-2---1-1-1-1-1-0----7-3---5-2-----------1-1-1-1-|
|-0---7-3---5-2---1-1-1-1-1-0----7-3---5-2-----------1-1-1-1-|


http://www.stonegods.co.uk/forum
Tap to rate this tab
 
# A B C D E F G H I J K L M N O P Q R S T U V W X Y Z