Song name
# A B C D E F G H I J K L M N O P Q R S T U V W X Y Z

Stone Gods - Goodbye tab

Help us improve GuitareTab! Take a short survey!
Song:Goodbye (B-Side)
Artist:Stone Gods
Album:Knight of The Livin' Dead (Single)
Tuning: Dropped D Tuning
Tabbed By: mister_@hotmail.it

This is just the intro of b side Goodbye in Knight of the Livin' Dead by Stone Gods. I'm 
to work out all the song but it's not easy.
As soon as I can I'll submit it. Enjoy!

INTRO PART. A


E||-------------------------|----------------------------|
B||----------------3--0-----|----------------------------|
G||-------------0--------0--|--2----2s--(0)--0-----------|
D||--2----2--4--------------|-------------------4--2--0--|
A||-------------------------|----------------------------|
D||-------------------------|----------------------------|

E||-------------------------|----------------------------|
B||----------------5--2-----|----------------------------|
G||-------------2--------2--|--4----4-5-4-2-4--2--0------|
D||--2----2--4--------------|------------------------4---|
A||-------------------------|----------------------------|
D||-------------------------|----------------------------|


E||-------------------------|----------------------------|
B||----------------3--0-----|----------------------------|
G||-------------0--------0--|--2----2s--(0)--0-----------|
D||--2----2--4--------------|-------------------4--2--0--|
A||-------------------------|----------------------------|
D||-------------------------|----------------------------|

E||-------------------------|----------------------------|
B||----------------5--2-----|----------------------------|
G||-------------2--------2--|--4----4s--(2)--2--0--------|
D||--2----2--4--------------|----------------------4--0--|
A||-------------------------|----------------------------|
D||-------------------------|----------------------------|

INTRO PART. B

E||---------------------------|--------------------------|
B||---------------------------|--------------------------|
G||---------------------0-----|--4-----0-----------------|
D||---2-----2-----4-----------|--------------4-----2-----|
A||------2-----2-----2-----2--|-----2-----2-----2-----2--|
D||---------------------------|--------------------------|

E||---------------------------|--------------------------|
B||---------------------------|--1-----1-----------------|
G||---------------------0-----|--------------4-----------|
D||---2-----2-----4-----------|--------------------------|
A||------2-----2-----2-----2--|-----2-----2--------------|
D||---------------------------|--------------------------|

E||---------------------------|--------------------------|
B||---------------------------|--------------------------|
G||---------------------0-----|--4-----0-----------------|
D||---2-----2-----4-----------|--------------4-----2-----|
A||------2-----2-----2-----2--|-----2-----2-----2-----2--|
D||---------------------------|--------------------------|

E||---------------------------|------------------------||
B||---------------------------|--1-----1---------------||
G||---------------------0-----|--------------4---------||
D||---2-----2-----4-----------|------------------------||
A||------2-----2-----2-----2--|-----2-----2------------||
D||---------------------------|------------------------||
Related for Goodbye tab