Song name
# A B C D E F G H I J K L M N O P Q R S T U V W X Y Z

Stone Gods - Lazy Bones tab

LAZY BONES	
Stone Gods
Silver Spoons and Broken Bones

Standard Tuning

Played on a 12-string

Capo 4th Fret

G#|---3-----3-----3-----3-------------3-----3-----3-----3------------|
D#|-1---1-0---0---------------------1---1-0---0----------------------|
B |-------------2---2-0--0-----0-2--------------2---2-0---0-----0-2--|
F#|------------------------2h3------------------------------2h3------|
C#|------------------------------------------------------------------|
G#|------------------------------------------------------------------|

       Am       C       F        Am       C       F
G#|-----0-------3-------1---------0-------3-------1----------------|
D#|-----1-------1-------1---------1-------1-------1----------------|
B |-----2-------0-------2---------2-------0-------2----------------|
F#|---2-------2---------3-------2-------2---------3----------------|
C#|-0-------3---------3-------0-------3---------3------------------|
G#|-----------------1-------------------------1--------------------|


Am			  C		      F
If it’s just waiting for the quiet times that you like
Am 		        C				F
If you need me to say I’m wrong to make you know that you’re right
Am		C		F
Take whatever you need from me tonight
        Am		       C			F
Even if it’s just waiting for the quiet times that you like

C
Come on let’s make this better
F
Dark days and heavy weather
C
My lazy bones are broken up
F                        Am     C     F 
Hidden away and covered up

If it’s just holding on for something good to turn up, alright
If it’s just picturing the better times with hindsight
Take whatever you need from me tonight
Even if it’s just waiting for the quiet times that you like

Come on let’s make this better
Dark days and heavy weather
My lazy bones are broken up
Hidden away and covered up

Solo (rhythm C to F just like the chorus)

C     F	             C
Ooooooooh…..my lazy bones
      F	             C
Ooooooooh…..my lazy bones
      F              C
Aaaaaaaah…….my lazy bones
      F
Aaaaaaaah

Come on let’s make this better
Dark days and heavy weather
My lazy bones are broken up
Hidden away and covered up

Come on let’s make this better
Dark days and heavy weather
My lazy bones are broken up
Hidden away and covered up

Am			  C		      F
If it’s just waiting for the quiet times that you like

Tap to rate this tab
 
# A B C D E F G H I J K L M N O P Q R S T U V W X Y Z