Song name
# A B C D E F G H I J K L M N O P Q R S T U V W X Y Z

Stone Gods - Pretty Ugly tab

Artist:Stone Gods
Song: Pretty Ugly (B-Side)
Album: Knight of the Living Dead Single
Tuning: Standard Ebgdae
Tabbed By Mister_@Hotmail.it

At the moment I only have choruses and pre-choruses.I'm tabbing out the verses. Please Rate


Intro A/Pre-Chorus

Guitar 1 (Lead)
              PM PM PM PM PM PM PM          PM PM PM PM PM PM PM 
E||--6\------6-----11----10----8--|--6\------6-----11----10----8--|
B||-------------6-----6-----6-----|-------------6-----6-----6-----|
G||-------------------------------|-------------------------------|
D||-------------------------------|-------------------------------|
A||-------------------------------|-------------------------------|
E||-------------------------------|-------------------------------|
             
              PM PM PM PM PM PM PM          
E||----------6-----11----10----8--|-------------------------------|
B||---9\---------6-----6-----6----|---9----9b--9b--9--12b--11--9--|
G||-------------------------------|-------------------------------|
D||-------------------------------|-------------------------------|
A||-------------------------------|-------------------------------|
E||-------------------------------|-------------------------------|

Guitar 2 (Rhythm)

E||--------------------|------------------|
B||--------------------|------------------|
G||--3-----------------|--3-----3---------|
D||--3-----------------|--3-----3---------|
A||--1-----------------|--1-----1---------|
E||--------------------|------------------|

        
E||--------------------|------------------|
B||--------------------|------------------|
G||--------------------|------------------|
D||----6------6--------|--6---6--6--6--6--|
A||----6------6--------|--6---6--6--6--6--|
E||----4------4--------|--4---4--4--4--4--|


Intro B/Chorus (Guitar 1 and 2)

-------------------------|--------------------------|
----------4--4-----------|----------4--4------------|
--3----3--3--3-----------|--3----3--3--3------------|
--3----3--1--1--8--x-----|--3----3--1--1--8s--x-----|
--1----1--------8--x--1--|--1----1--------8s--x--1--|
----------------6--x-----|----------------6s--x-----|


--------------------------|-------------------------|
----------4--4------------|-------------------------|
--3----3--3--3------------|-------------------------|
--3----3--1--1--8S--x-----|-------------------------|
--1----1--------8S--x--1--|----------------------0--|
----------------6S--x-----|--1----1--4--1--4--1-----|


-------------------------|--------------------------|
----------4--4-----------|----------4--4------------|
--3----3--3--3-----------|--3----3--3--3------------|
--3----3--1--1--8--x-----|--3----3--1--1--8s--x-----|
--1----1--------8--x--1--|--1----1--------8s--x--1--|
----------------6--x-----|----------------6s--x-----|


-------------------------|-----------------------|----------|
-------------------------|--(6)------------------|----------|
--3----3-----------------|---3-------------------|--3-------|
--3----3-----------------|---3-------------------|--3-------|
--1----1-----------------|---1-------------------|--1-------|
----------4--1--4--1--4--|-----------------4--1--|----------|


Tap to rate this tab
# A B C D E F G H I J K L M N O P Q R S T U V W X Y Z