Song name
# A B C D E F G H I J K L M N O P Q R S T U V W X Y Z

Stone Gods - Things Could Be Worse tab

Artist:Stone Gods
Song: Things Could Be Worse
Album: Start Of Something Single
tabbed by Mister_@hotmail.it

Intro

     F#m                             E
E||------2-----2----2--2--2-2--2--|------0-----0----0--0--0-0--0--|
B||------2-----2----2--2--2-2--2--|------0-----0----0--0--0-0--0--|
G||--2---2--2--2--2-2--2--2-2--2--|--1---1--1--1--1-1--1--1-1--1--|
D||--4---4--4--4--4-4--4--4-4--4--|--2---2--2--2--2-2--2--2-2--2--|
A||-------------------------------|-------------------------------|
E||-------------------------------|-------------------------------| x2


     F#m                             E
E||------2-----2----2--2--2-2--2--|------0-----0----0--0--0-0--0--|
B||------2-----2----2--2--2-2--2--|------0-----0----0--0--0-0--0--|
G||--2---2--2--2--2-2--2--2-2--2--|--1---1--1--1--1-1--1--1-1--1--|
D||--4---4--4--4--4-4--4--4-4--4--|--2---2--2--2--2-2--2--2-2--2--|
A||-------------------------------|-------------------------------|
E||-------------------------------|-------------------------------|

     Bm                             Dsus2
E||-------------------------------|------0-----0----0--0--0-0--0--|
B||------3-----3----3--3--3-3--3--|------3-----3----3--3--3-3--3--|
G||------4-----4----4--4--4-4--4--|--2---2--2--2--2-2--2--2-2--2--|
D||--4---4--4--4--4-4--4--4-4--4--|--0---0--0--0--0-0--0--0-0--0--|
A||--2---2--2--2--2-2--2--2-2--2--|-------------------------------|
E||-------------------------------|-------------------------------|


Verse

     F#m                             E
E||------2-----2----2--2--2-2--2--|------0-----0----0--0--0-0--0--|
B||------2-----2----2--2--2-2--2--|------0-----0----0--0--0-0--0--|
G||--2---2--2--2--2-2--2--2-2--2--|--1---1--1--1--1-1--1--1-1--1--|
D||--4---4--4--4--4-4--4--4-4--4--|--2---2--2--2--2-2--2--2-2--2--|
A||-------------------------------|-------------------------------|
E||-------------------------------|-------------------------------|

     Bm                             Dsus2
E||-------------------------------|------0-----0----0--0--0-0--0--|
B||------3-----3----3--3--3-3--3--|------3-----3----3--3--3-3--3--|
G||------4-----4----4--4--4-4--4--|--2---2--2--2--2-2--2--2-2--2--|
D||--4---4--4--4--4-4--4--4-4--4--|--0---0--0--0--0-0--0--0-0--0--|
A||--2---2--2--2--2-2--2--2-2--2--|-------------------------------|
E||-------------------------------|-------------------------------|  x2
Tap to rate this tab
# A B C D E F G H I J K L M N O P Q R S T U V W X Y Z