Song name
# A B C D E F G H I J K L M N O P Q R S T U V W X Y Z

Stone Gods - Where You Coming From tab

Song: Where You Coming From
Artist: Stone Gods
Album: Silver Spoons And Broken Bones
Tabbed by Mister_@hotmail.it

Tuning: Drop D Ebgdad

Rhythm Guitar

Intro/Chorus

E||--------------------------|--------------------------|
B||--------------------------|--------------------------|
G||--------------------------|--------------------------|
D||--5--5-----5--5--5-----5--|--5--5-----5--5--5-----5--|
A||--5--5-----5--5--5-----5--|--5--5-----5--5--5-----5--|
D||--5--5-----5--5--5-----5--|--5--5-----5--5--5-----5--|

E||--------------------------|--------------------------------|
B||--------------------------|--------------------------------|
G||--------------------------|--------------------------------|
D||--0--0-----0--0--0-----0--|--10--10-----10--10--10-----10--|
A||--0--0-----0--0--0-----0--|--10--10-----10--10--10-----10--|
D||--0--0-----0--0--0-----0--|--10--10-----10--10--10-----10--|  

E||--------------------------|--------------------------|
B||--------------------------|--------------------------|
G||--------------------------|--------------------------|
D||--5--5-----5--5--5-----5--|--5--5-----5--5--5-----5--|
A||--5--5-----5--5--5-----5--|--5--5-----5--5--5-----5--|
D||--5--5-----5--5--5-----5--|--5--5-----5--5--5-----5--|

E||--------------------------|--------------------------------|
B||--------------------------|--------------------------------|
G||--------------------------|--------------------------------|
D||--0--0-----0--0--0-----0--|--10--10-----10--10--10-----10--|
A||--0--0-----0--0--0-----0--|--10--10-----10--10--10-----10--|
D||--0--0-----0--0--0-----0--|--10--10-----10--10--10-----10--|  


Verse

E||--------------------------|--------------------------|
B||--------------------------|--------------------------|
G||--------------------------|--------------------------|
D||--5--5-----5--5--5-----5--|--5--5-----5--0--x--0--x--|
A||--5--5-----5--5--5-----5--|--5--5-----5--0--x--0--x--|
D||--5--5-----5--5--5-----5--|--5--5-----5--0--x--0--x--|

E||--------------------------|--------------------------|
B||--------------------------|--------------------------|
G||--------------------------|--------------------------|
D||--2--2-----2--2--2-----2--|--2--2-----2--10----10----|
A||--2--2-----2--2--2-----2--|--2--2-----2--10----10----|
D||--2--2-----2--2--2-----2--|--2--2-----2--10----10----|

E||--------------------------|--------------------------|
B||--------------------------|--------------------------|
G||--------------------------|--------------------------|
D||--5--5-----5--5--5-----5--|--5--5-----5--0--x--0--x--|
A||--5--5-----5--5--5-----5--|--5--5-----5--0--x--0--x--|
D||--5--5-----5--5--5-----5--|--5--5-----5--0--x--0--x--|

E||--------------------------|--------------------------|
B||--------------------------|--------------------------|
G||--------------------------|--------------------------|
D||--2--2-----2--2--2-----2--|--2--2-----2--10----10----|
A||--2--2-----2--2--2-----2--|--2--2-----2--10----10----|
D||--2--2-----2--2--2-----2--|--2--2-----2--10----10----|

Pre-Chorus (not sure about this part, 'cos it's played to low...)

E||-------------------|-------------------|
B||-------------------|-------------------|
G||--7----------------|--7----------------|
D||--7----------------|--7--------7-------|
A||--5----------------|--5--------7-------|
D||-------------------|-----------7-------|
               
E||-------------------|-------------------|
B||-------------------|-------------------|
G||--7----------------|--5----------------|
D||--7----------------|--5----------------|
A||--5----------------|--3----------------|
D||-------------------|-------------------|
               
E||-------------------|-------------------|
B||-------------------|-------------------|
G||-------------------|--2----------------|
D||--5----------------|--2----------------|
A||--5----------------|--0----------------|
D||--5----------------|-------------------|
     
E||-------------------|-------------------------|
B||-------------------|--3--3--3--3--3--3--3----|
G||--4----------------|--2--2--2--2--2--2--2----|
D||--4----------------|--0--0--0--0--0--0--0----|
A||--2----------------|-------------------------|
D||-------------------|-------------------------|

For the solo play the same chords as Verse and Pre-Chorus



Lead Guitar just does 

Pre-Chorus

E||---------------------------|-----------------------|
B||---------------------------|-----------------------|
G||---------------------------|-----------------------|
D||------17------19-----------|-------------19--------|
A||--17------17---------------|-------19h22-----22----|
D||---------------------------|-----------------------|

E||---------------------------|-10--8--7-5--3--2------|
B||---------------------------|--8--6--5-3--1--0------|
G||---------------------------|-----------------------|
D||------17------19-----------|-----------------------|
A||--17------17---------------|-----------------------|
D||---------------------------|-----------------------|

and

Chorus

E||-------10------------------|          E||-----------------10b----|
B||------------8---10---------|          B||----10h8--12h8----------|
G||---------------------------|          G||------------------------|
D||---------------------------|          D||------------------------|
A||---------------------------|          A||------------------------|
D||---------------------------| x7 then  D||------------------------|

Intro
Verse
Pre-Chorus
Chorus
Break (Chorus)
Verse
Pre-Chorus
Chorus
Solo(Verse+Pre-Chorus)
Chorus
Out Chorus

and that's all!!

Tap to rate this tab
 
# A B C D E F G H I J K L M N O P Q R S T U V W X Y Z