Guitaretab - guitar tabs
Song name
# A B C D E F G H I J K L M N O P Q R S T U V W X Y Z

Stone Roses - The Sun Still Shines tab

-----------------------------------------------------------------------
THE SUN STILL SHINES  The Stone Roses
--------------------------------------------------------------------------

Tabbed by: Ben Ambridge
Email: Benambridge at homtail dot com

ALL GUITARS CAPO 5th FRET (Tabbed with respect to Capo)


INTRO (12 String)

e:-----------------:-----0-0-0-0-0-0--:
B:-----------------:-----5-5-5-7-5-5--:
G:-2-2-2-2-2-4-2-2-:-4/6-6-6-6-6-6-6--:   X 2
D:-----------------:------------------:
A:-----------------:------------------:
E:-----------------:------------------:                    VERSES

                                                          1. She said that
                                                          2. And every

-----------------:-5-5-5-5-5--------:--------0-2-0---:-2-0-0---0--------:
-3------------3--:-3-3-3-3-3-3-3----:-5--2-2---------:-------2----------:
-4------------4--:-4-4-4-4-4-4-4----:-4--------------:------------------:
-5---------------:------------------:----------------:------------------:
-----------------:------------------:----------------:------------------:
-----------------:------------------:----------------:------------------:

spring         is in           the   air                    and summer
time           I try           you   all walk   away        I know the

-------0---------:-------0----------:----------------:-0-0--------------:
---2------2---2--:---0-----0---0----:-------3--------:-0-0--0-----------:
-2---2-----0----:-1---1-----1------:---2-----2---2--:-1-1----1---------:
-----------------:------------------:-0---0-----0----:-2-2------2-------:
-----------------:------------------:----------------:------------------:
-----------------:------------------:----------------:------------------:

will        blo-  som                every-         where     but were as
end         the   end             the end that you say        Id like  to

-------0---------:-------0----------:----------------:-0-0--------------:
---2------2---2--:---0-----0---0----:-------3--------:-0-0--0-----------:
-2---2-----0----:-1---1-----1------:---2-----2---2--:-1-1----1---------:
-----------------:------------------:-0---0-----0----:-2-2------2-------:
-----------------:------------------:----------------:------------------:
-----------------:------------------:----------------:------------------:

 dead    as        dead        as     autumns         leaves   and let me
 lose    my-       self        in     side             of you   but God I

-------0-0-0-----:-0---0----2--4----:--2-0-----------:------------------:
---2-------------:------------------:------3---------:------------------:
-2---2-----------:------------------:--------2--2----:--2-----0-2-3-----:
-----------------:------------------:----------------:------------------:
-----------------:------------------:----------------:------------------:
-----------------:------------------:----------------:------------------:


warm        you    in            the breeze            and the sun still
know        the    things       wed do                yet the sun still

-0----0---0-0----:--0----0---2-4----:-----5---7-5----:--5---7----5------:
-----------------:------------------:-4/7---7-----7-7:----7--------7----:
-----------------:------------------:----------------:------------------:
-----------------:------------------:----------------:------------------:
-----------------:------------------:----------------:------------------:
-----------------:------------------:----------------:------------------:
CHORUS


1,2 Shines                    the sun still shines                  oh the
3   Shines                    the sun still shi la la la la       la la la
[ Tab from: http://www.guitaretab.com/s/stone-roses/117275.html ]
------------------:-----------------:-----------------:----------------:
------------------:-------3--2-0----:-----------------:-----3--2-0-----:
-----2---4-2------:---4-------------:-----2---4-2-----:--4-------------:
-2-4---4-----4----:-----------------:-2-4---4-----4---:----------------:
------------------:-----------------:-----------------:----------------:
------------------:-----------------:-----------------:----------------:

                                    ************* FIRST TIME ONLY ******

  sun        the   sun keeps shining  through                      behind
  la         la        la             la la etc..

------------------:-----------------:--0--------------:----------------:
--3----------2----:--32-3-2-3------:-----------------:----------------:
------------------:-----------------:-----------------:----------------:
------------------:-----------------:-----------------:----------------:
------------------:-----------------:-----------------:----------------:
------------------:-----------------:-----------------:----------------:


******************************** FIRST TIME ONLY ***********************

everyone             and over me and  you

------------------:-----------------:--0--------0-2-0-:--2-0-0---------:
----3----2--------:--3-3-3-2-3-2-3--:--------2--------:--------2-5-5-5-:
------------------:-----------------:-----------------:----------------:
------------------:-----------------:-----------------:----------------:
------------------:-----------------:-----------------:------Then go---:
------------------:-----------------:-----------------:------to verse 2:


                                    ************ SECOND TIME ONLY ******

  sun        the   sun keeps shining  through                      behind

------------------:-----------------:--0--------------:-----5-5-5-7-5---:
--3----------2----:--32-3-2-3------:-----------------:-5-7-----------7-:
------------------:-----------------:-----------------:-----------------:
------------------:-----------------:-----------------:-----------------:
------------------:-----------------:-----------------:-----------------:
------------------:-----------------:-----------------:-----------------:

******************************** SECOND TIME ONLY ***********************

everyone             and over me and  you

------------------:-----------------:--0--------------:------------------:
----3----2--------:--3-3-3-2-3-2-3--:-----------------:------------------:
------------------:-----------------:-----------------:------------------:
------------------:-----------------:-----------------:------------------:
------------------:-----------------:-----------------:-------Then go----:
------------------:-----------------:-----------------:-------to mid 8---:

MID 8

(No music) So fall down the stairs and cry and my door how much does it hurt? Can you 
the blues now? You know youd like to. You wear it like a


shirt,            shirt                    the sun still

-2----------------:-----------------:-----------------:
-3----------------:-----------------:-2-2-2-2-2-1-----:
-2----------------:-----------------:-------------4-2-:    Go to
-0----------------:-----------------:-----------------:    chorus
------------------:-----------------:-----------------:    (3rd time)
------------------:-----------------:-----------------:

                                    ************ THIRD TIME ONLY ******

------------------:-----------------:--0--------------:-0---------------:
--3----------2----:--32-3-2-3------:-----------------:-----------------:
------------------:-----------------:-----------------:-----------------:
------------------:-----------------:-----------------:-----------------:
------------------:-----------------:-----------------:-----------------:
------------------:-----------------:-----------------:-----------------:


******************************** THIRD TIME ONLY ***********************

--0--------7---7--:--0--------------:-----------------:
-------------5----:--2--------------:-----------------:
------------------:--2--------------:-----------------:
------------------:--2--------------:-----------------:
------------------:--0--------------:-----------------:
------------------:-----------------:-----------------:
Related for The Sun Still Shines tab