Song name
# A B C D E F G H I J K L M N O P Q R S T U V W X Y Z

Stone Roses - Elephant Stone tab

This is the 12" version of Elephant Stone.  
The song has a very interesting structure,
you have to listen to it to figure ou,.  
it's not very hard to get though.  
Extra chords are G,D,& C & they are only 
used in the 7" version, but they'll work 
fine in this one.

Standard tuning: EADGBe

Capo: 1st Fret

Intro:

e---------3--3----------------------|
B-----0-1------1---1-0----------0-1-|
G-0-2------------2-----2-0--0-2-----|
D-----------------------------------|
A-----------------------------------|
E-----------------------------------| x1

Verse:

e---------0-----2-----0-----0----- ---3-----0-------|
B---3-------3-----3-----3-----3--- -----3-----3-----|
G-----2-------2-----2-----2-----2- -0-----0-----0---|
D-0-----0------------------------- -----------------|
A--------------------------------- ---------------3-|
E--------------------------------- -----------------|


-0---------------3-----0-------0-------------|
---3---------------3-----3-------3-----------|
-----0---------0-----0-----0-------0---------|
-------------0-----------------------0-------|
-------0-2-3-----------------3---------3-2-0-|
---------------------------------------------|


---------------------------------| e-0--2-|
-----3-------3-------3-------3---| B-1--3-|
---0---0---0---0---0---0---0---0-| G-0--2-|
---------------------------------| D-2--0-|
---------0-------2-------3-------| A-3----|
-3-------------------------------| E------|

Slide bit:

e------|
B-7/13-|
G------|
D------|
A------|
E------|

Interlude before verse 1:

e------------------------------|
B------------------------------|
G----------2-------------------|
D-5-2-5-2-5-5-2--5-2-5-2--2----|
A-----------------------5--5-2-|
E------------------------------| x3

Interlude after last verse:

e---------------------------------|
B--3------------------------------|
G----2------0-2-0-----0-2-4-2-0---|
D------0-2b---------4-----------4-|
A---------------------------------|
E---------------------------------| x1

Solo:

e--3-3-2-3/5-3-5/7-5-7-8-7-8-7-5-3-5----8-7-8-7-5---5---5-7-8-7-5-7-3-|
B-------------------------------------------------8---8---------------|
G---------------------------------------------------------------------|
D---------------------------------------------------------------------|
A---------------------------------------------------------------------|
E---------------------------------------------------------------------|


Any questions and comments are welcome.  Email me at. Seifer_alamasy@yahoo.com.
Tap to rate this tab
 
# A B C D E F G H I J K L M N O P Q R S T U V W X Y Z