Song name
# A B C D E F G H I J K L M N O P Q R S T U V W X Y Z

Stone Roses - I Am The Resurrection tab

Help us improve GuitareTab! Take a short survey!
#

From: "Mr. D:ream" <9448960@iona.sms.ed.ac.uk>
Date:          Wed, 8 Nov 1995 22:07:16 +0000
Subject:       /s/stone_roses/i_am_the_resurrection.tab

This is only a measly 20 seconds of the song but I think it sounds 
good to play, so here goes.............

It is part the of the outro from 6.00 to 6.20 on the CD..


E-----------------------------------------------------------------
B--7----7---5----------5-------------------5-------7---5----------
G------------------7--------7-----4----7---------------------7----
D-----------------------------------------------------------------
A-----------------------------------------------------------------
E-----------------------------------------------------------------


E---------------5-------------------------------------------------
B---5----------------7---5-------5---3---------3----------------3-
G-------7-----------------------------------4-------4---2---4-----
D-----------------------------------------------------------------
A-----------------------------------------------------------------
E-----------------------------------------------------------------


E-------------------------------------------5--5-----5-5-5--------
B--5---3---------3-----5---7----5--7------------------------7-7-7-
G------------4----------------------------------------------------
D-----------------------------------------------------------------
A-----------------------------------------------------------------
E-----------------------------------------------------------------


E-----------------------------------------------------------------
B----7-p-5----7-p-5----7-p-5-----------5-------------------5------
G---------------------------------7--------7-----4---7------------
D-----------------------------------------------------------------
A-----------------------------------------------------------------
E-----------------------------------------------------------------


E-----------------------------------------------------------------
B---------------7----5----------------------------7----5----------
G---7----4-----------------7---4----7---4-------------------------
D-----------------------------------------------------------------
A-----------------------------------------------------------------
E-----------------------------------------------------------------


E-----------------------------------------------------------------
B---------------------5----5----------------(-5-\-)---------------
G----7---4----7---------------------------------------------------
D-----------------------------------------------------------------
A-----------------------------------------------------------------
E-----------------------------------------------------------------


p = pull off

\ = slide

If anyone knows the rest of the song (only a mere eight minutes or so 
more!) could they please let me know it?! In fact I would like to get in 
contact with anyone who can share with me any transcriptions they might 
have of ANY Stone Roses songs, especially What The World Is Waiting For 
and most of the songs from Second Coming (TABs preferred but I've got an 
open mind for anything!).

Well, I hope someone finds this useful!

Alex

e-mail me at 9448960@iona.sms.ed.ac.uk
Date: 10 Jan 96 12:15:19 EST
From: MR SULLIVAN <100746.3536@compuserve.com>

I AM THE RESURRECTION - BY THE STONE ROSES(SOLO)
================================================

This bit is the second solo that comes after the small
bass solo. It may not be exactly right it's just the 
way i play it, there is also a bit near the end that 
is a bit too messy for my little mind.



e|---------------------------------------------------------------|
B|---7------------------7-99-99-7-99-7---------------------------|
G|------9p7h9p7---------7-99-99-7-99-7---------------------------|
D|-9-----------h9-7h9---7-99-99-7-99-7----7-7--------------------|
A|--------------------7---------------9---9---9p7h9-9p7h9-7-5-7-5|
E|---------------------------------------------------------------|


e|-14-1212-1111-1212-11-12-11--------------------17-15-----------|
B|----------------------------12---17p15---15-17-------17-15-----|
G|--------------------------------------17-------------------17--|
D|---------------------------------------------------------------|
A|---------------------------------------------------------------|
E|---------------------------------------------------------------|


e|-10-77---------------------------------------------------------|
B|-10-77-1010-77-10-7------------------9--7-------------------7--|
G|-------1010-77-10-7------------------------9-7-9-7--7777----7--|
D|-------------------9----------------9--9--9-------9------7h9--9|
A|---------------------------------------------------------------|
E|---------------------------------------------------------------|
			    ^this is the messy bit



-ANY ADDITIONS WELCOME
-MAIL ME WITH COMMENTS (MAIL ME ANYWAY)

MARK SULLIVAN <70006.101@COMPUSERVE.COM>
Related for I Am The Resurrection tab