Song name
# A B C D E F G H I J K L M N O P Q R S T U V W X Y Z

Stone Roses - Love Spreads tab

|--------------------------|--------------------------|
|--------------------------|--------------------------|
|--------------------------|--------------------------|
|--------------------------|--------------------------|
|--------5---5b8-5b8-5b8-5-|------0---3h5-5/108-5---5-|
|0-------------------------|--0-------------------5---|

|--------------------------|------------------------------|
|--------------------------|------------------------------|
|------7-------------------|------------7-----------------|
|----7---5/3---------------|------------------------------|
|------------5-5b8-5b8-5b8-|5---5-5b8-5---5-----5b8-5-5b8-|
|0-------------------------|--8-------------5-8-----------|

|--------------------------|---------------------------|
|--------------------------|---------------------------|
|------7-------------------|---------------------------|
|--------------------------|---------------------------|
|5-------5----5b8-5b8-5b8-5|8b108b10r8--5-5s8--10--12~~|
|--------------------------|---------------------------|

|--------------------------|--------------------------|
|--------------------------|--------------------------|
|----14~~----1212----10----|--------------------------|
|--------------------------|--------------------------|
|10s12---8s10----7s8---8s5-|5b8-5---5b8-5-5b8-5~~~~~~~|
|--------------------------|--------------------------|

Tabbed by JoeBron: chickenluvr@hotmail.com
Tap to rate this tab
# A B C D E F G H I J K L M N O P Q R S T U V W X Y Z