Song name
# A B C D E F G H I J K L M N O P Q R S T U V W X Y Z

Stone Roses - Made Of Stone tab

this is not made by me!!
I found it on the internet and thought that Ultimate guitar needed it.

MADE OF STONE SOLO	BY THE STONE ROSES
==================
Standard Tuning (high to low) eBGDAE
B     = BEND
R     = RELEASE
H     = HAMMER

e|----------12--------------------------------------------------------|
B|----12-------12------------------------12------10-----10------------|
G|-14B--14B-------14R-14-12-14--14-12-14----9H11----9H11--------------|
D|--------------------------------------------------------------------|
A|--------------------------------------------------------------------|
E|--------------------------------------------------------------------|



e|----------------------|----12----------------------------------------|
B|-12--12--12--12----12-|-15B--15-12----12------------------12---------|
G|-14B-14B-14B-12-12-14-|------------14B---14-12-14-14-12H14-----------|
D|----------------14----|----------------------------------------------|
A|----------------------|----------------------------------------------|
E|----------------------|----------------------------------------------|



e|------------------------------------------------------12~~~~~~~~~~~~|
B|------------------------12--------12--------12--12-15-15B~~~~~~~~~~~|
G|---------12--12-14-12-14--14-12H14--14-12H14--14--------------------|
D|----12H14--14-------------------------------------------------------|
A|-14-----------------------------------------------------------------|
E|--------------------------------------------------------------------|


e|----12-------------------------------|-------------------------------|
B|-15B--15-12---12------------------12-|-14~~~-12-14-12--14~~~-12-14---|
G|-----------14B---14-12-14-14-12H14---|-14B~~-12-14-12--14B~~-12-14---|
D|-------------------------------------|-------------------------------|
A|-------------------------------------|-------------------------------|
E|-------------------------------------|-------------------------------|


THIS LITTLE BIT IS PLAYED A FEW TIMES
e|--------------------|
B|--XXX--12--14-------|
G|--XXX--12--14-------|
D|--XXX--12--14-------|
A|--------------------|
E|--------------------|
Tap to rate this tab
# A B C D E F G H I J K L M N O P Q R S T U V W X Y Z