Song name
# A B C D E F G H I J K L M N O P Q R S T U V W X Y Z

Stone Roses - Sally Cinnamon tab

I do not take credit for this tab. I've just taken the 2 brilliant tab and chord
tabs already on this site and combined them so its easier to reaad and flow
through the song. So here we are:


Intro riff:

E----------------------------------------------------------------|
B---------3--------------------------------------------------3---|
G--------------5----4-----5---4-----5---4----5---4---2---0-------|
D---5------------------------------------------------------------| X2
A----------------------------------------------------------------|
E----------------------------------------------------------------|


G			C
Until Sally I was never happy
		  G
I needed so much more
			   C
Rain clouds oh they use to chase me
		G
Down they would pour

Guitar riff:
E----------------------------------------------------------------|
B---------------12------------------12---------------------------|
G-----12---14--------14---12---14--------14---12-----------------|
D----------------------------------------------------------------|
A----------------------------------------------------------------|
E----------------------------------------------------------------|

	C
Join my tears

E----------------------------------------------------------------|
B-------------5---------------5----------------------------------|
G-----5---7-------7---5---7-------7---5--------------------------|
D----------------------------------------------------------------|
A----------------------------------------------------------------|
E----------------------------------------------------------------|

E----------------------------------------------------------------|
B---------------12------------------12---------------------------|
G-----12---14--------14---12---14--------14---12-----------------|
D----------------------------------------------------------------|
A----------------------------------------------------------------|
E----------------------------------------------------------------|

G	 C
Allay my fears

E----------------------------------------------------------------|
B-------------5---------------5----------------------------------|
G-----5---7-------7---5---7-------7---5--------------------------|
D----------------------------------------------------------------|
A----------------------------------------------------------------|
E----------------------------------------------------------------|

D
Sent to me from heaven
C			 G     C    G   C
Sally Cinnamon you're my world

E----------------------------------------------------------------|
B---------3--------------------------------------------------3---|
G--------------5----4-----5---4-----5---4----5---4---2---0-------|
D---5------------------------------------------------------------| X2
A----------------------------------------------------------------|
E----------------------------------------------------------------|

G                     C
A heart-broke???????? girl

E----------------------------------------------------------------|
B-------------5---------------5----------------------------------|
G-----5---7-------7---5---7-------7---5--------------------------|
D----------------------------------------------------------------|
A----------------------------------------------------------------|
E----------------------------------------------------------------|

                   G
You taste of cherry aid

E----------------------------------------------------------------|
B---------------12------------------12---------------------------|
G-----12---14--------14---12---14--------14---12-----------------|
D----------------------------------------------------------------|
A----------------------------------------------------------------|
E----------------------------------------------------------------|

                                 C
There is something here you must show me

E----------------------------------------------------------------|
B-------------5---------------5----------------------------------|
G-----5---7-------7---5---7-------7---5--------------------------|
D----------------------------------------------------------------|
A----------------------------------------------------------------|
E----------------------------------------------------------------|
                  G
From what you are made

E----------------------------------------------------------------|
B---------------12--------13---12------------------12------------|
G-----12---14--------14-------------14---12---14--------14---12--|
D----------------------------------------------------------------|
A----------------------------------------------------------------|
E----------------------------------------------------------------|
             C
Of sugar and spice

E----------------------------------------------------------------|
B-------------5---------------5----------------------------------|
G-----5---7-------7---5---7-------7---5--------------------------|
D----------------------------------------------------------------|
A----------------------------------------------------------------|
E----------------------------------------------------------------|

E----------------------------------------------------------------|
B---------------12--------13---12------------------12------------|
G-----12---14--------14-------------14---12---14--------14---12--|
D----------------------------------------------------------------|
A----------------------------------------------------------------|
E----------------------------------------------------------------|

G
And all things nice

D
Sent to me from heaven
C                        G    C   G   C
Sally Cinnamon you're my world

E----------------------------------------------------------------|
B---------3--------------------------------------------------3---|
G--------------5----4-----5---4-----5---4----5---4---2---0-------|
D---5------------------------------------------------------------| X2
A----------------------------------------------------------------|
E----------------------------------------------------------------|

Solo:

E------------------------------------------------------------------|
B------------------------------------------13-----12---------------|
G---2--/---12------12-----14----12--------------------12----12--12-|
D------------------------------------------------------------------|
A------------------------------------------------------------------|
E------------------------------------------------------------------|

E-----------------------------------------------------------------|
B--13---12------------13-----12-------------13---12---------------|
G---------------12---------------------12-----------------12------|
D-----------------------------------------------------------------|
A-----------------------------------------------------------------|
E-----------------------------------------------------------------|

E-----------------------------------------------------------------|
B-----------------------------------------------------------------|
G--12--12---12-----12----14---12----14----12---14---12--12--------|
D-----------------------------------------------------------------|
A-----------------------------------------------------------------|
E-----------------------------------------------------------------|

E-----------------------------------------------------------------|
B--13---12--------------------------------15--15--15--15----------|
G----------------12-------12--12--12------------------------------|
D-----------------------------------------------------------------|
A-----------------------------------------------------------------|
E-----------------------------------------------------------------|

E-----------------------------------------------------------------|
B--13---12-----13-----12------------------------------------------|
G---------------------------------12------------------------------|
D-----------------------------------------------------------------|
A-----------------------------------------------------------------|
E-----------------------------------------------------------------|


D
You're eyes are gazing back
C
From every little piece of ????
D
You seem to smile from every ????
C			    G   C    G   C
Sally Cinnamon, you are my world

G			C
Then i put the letter back
G			  C
In the place where it was found
G		    C
In the pocket of a jocket
G		C
Of a train in town

D
Sent to her from heaven
C			  G
Sally Cinnamon you're her world
Tap to rate this tab
 
# A B C D E F G H I J K L M N O P Q R S T U V W X Y Z