Song name
# A B C D E F G H I J K L M N O P Q R S T U V W X Y Z

Stone Roses - Sally Cinnamon tab

From: "Mr. D:ream" <9448960@iona.sms.ed.ac.uk>
Date:          Wed, 8 Nov 1995 21:52:07 +0000
sally cinnamon

A classic song by the Stone Roses!

This is the intro riff which is played twice:

E----------------------------------------------------------------
B---------3----1----0-----1---0-----1---0----1---0---------------
G---0-----------------------------------------------------2------
D----------------------------------------------------------------
A----------------------------------------------------------------
E----------------------------------------------------------------

(The bit in between the chords that follow the intro [ D and G I 
think, but I'm not sure] is just the last 4 notes repeated again)

And here is the solo:

E------------------------------------------------------------------
B------------------------------------------13-----12---------------
G---2--/---12------12-----14----12--------------------12----12--12-
D------------------------------------------------------------------
A------------------------------------------------------------------
E------------------------------------------------------------------


E-----------------------------------------------------------------
B--13---12------------13-----12-------------13---12---------------
G---------------12---------------------12-----------------12------
D-----------------------------------------------------------------
A-----------------------------------------------------------------
E-----------------------------------------------------------------


E-----------------------------------------------------------------
B-----------------------------------------------------------------
G--12--12---12-----12----14---12----14----12---14---12--12--------
D-----------------------------------------------------------------
A-----------------------------------------------------------------
E-----------------------------------------------------------------


E-----------------------------------------------------------------
B--13---12--------------------------------15--15--15--15----------
G----------------12-------12--12--12------------------------------
D-----------------------------------------------------------------
A-----------------------------------------------------------------
E-----------------------------------------------------------------


E-----------------------------------------------------------------
B--13---12-----13-----12------------------------------------------
G---------------------------------12------------------------------
D-----------------------------------------------------------------
A-----------------------------------------------------------------
E-----------------------------------------------------------------

Any comments/additions, or just want a chat then e-mail me at..

9448960@iona.sms.ed.ac.uk
Tap to rate this tab
# A B C D E F G H I J K L M N O P Q R S T U V W X Y Z