Song name
# A B C D E F G H I J K L M N O P Q R S T U V W X Y Z

Stone Roses - She Bangs The Drums tab

intro :

e-0--------------------------------------------|
B-0----------------5---------------------5-----|
G-4--4---4---4-4/6---6\4---4---4---4-4/6---6\4-|
D-2----2---2-------------2---2---2-------------|
A----------------------------------------------|
E----------------------------------------------|


 i ....

e---------------------------------------------|
B-----------------5---------------------5-----|
G---4---4---4-4/6---6\4---4---4---4-4/6---6\4-|
D-2---2---2-------------2---2---2-------------|
A---------------------------------------------|
E---------------------------------------------|


 and spiral ...

e---------------------------------------|
B-3-----------------3-3-----------------|
G-2-----2-4-2-------2-2-----2-2-4/6-4\2-|
D-0-2/4-------4-2-0-0-0-2/4-------------|
A---------------------------------------|
E---------------------------------------|

 she bangs ...

e-------5-----------|
B-7-5---------------|
G-----7---7-6-4/6---|
D-----------------7-|
A-------------------|
E-------------------|


 have you ...

e-------5---------------|
B-----5---5-7-5-------5-|
G-6H7-----------7-6-7---|
D-----------------------|
A-----------------------|
E-----------------------|


 to describe ...

e-----------------|
B-----------------|
G-----------------|
D-6-6-6-4-6-7-6---|
A---------------7-|
E-----------------|


 solo :

 BASS
G---------------------------------------------------------|
D---------------------------------------------------------|
A-0-0-2-0-4-0-0-5-4-0-2-4-2-0-----------------------------|
E-----------------------------0-0-2-0-4-0-0-5-4-0-2-4-2-0-|

 GUITAR
e-0---------------------------0---------------------------|
B-2---------------------------0---------------------------|
G-2---------------------------1---------------------------|
D-2---------------------------2---------------------------|
A-0---------------------------2---------------------------|
E-----------------------------0---------------------------|

e-0-----------------0----------------|
B-0-------------------3--------------|
G-1-------------------2--------------|
D-2---------2---2---------------2--2-|
A-2-----2-4---4---2---------2-4---4--|
E-0-2/4-----------0-----2/4----------|

e-----------------------------------------------12---------------------|
B-7-5-7-10-7-5-7~-7-5-7-10-7-5-7-9~-9-10-10-9-9------10P9------10P9----|
G-7-6-7-9--7-6-7~-7-6-7-9--7-6-7-9~-9-9--9--9-9----9------11P9------11-|
D----------------------------------------------------------------------|
A----------------------------------------------------------------------|
E----------------------------------------------------------------------|

e------------------------------7-7-|
B-7-5-7-10-7-5-7~-7-5-7-9-10-x-9-9-|
G-7-6-7-9--7-6-7~-7-6-7-9-9--x-----|
D----------------------------------|
A----------------------------------|
E----------------------------------|
Tap to rate this tab
 
# A B C D E F G H I J K L M N O P Q R S T U V W X Y Z