Song name
# A B C D E F G H I J K L M N O P Q R S T U V W X Y Z

Stone Roses - Made Of Stone tab

=====================================
Artist : The Stone Roses
Album : The Stone Roses (1989)
Song : Made of Stone
=====================================


e-------------12---------------------------------------------|
B------12---------------------12-14-12-14--------------------|
G--14b----14b----14-12----12--12-14-12-14--------------------|
D----------------------14-----------------14/16--16-14-16-14-|
A------------------------------------------------------------|
E------------------------------------------------------------|


e-------------------------------12-----------------------------------|
B-14b15--15-15-15-----------15b----15-12-----12-------------------12-|
G-14b15--15-15-15-14-12-14---------------14b----14-12-14--14-12-14---|
D--------------------------------------------------------------------|
A--------------------------------------------------------------------|
E--------------------------------------------------------------------|


e-----------------------------------12----12----12----12-12-12-12-12-12-12-12-12-12-12-|
B-----------------------12----12-15----15----15----15----------------------------------|
G-----------12----12-14----14----------------------------------------------------------|
D-----12-14----14----------------------------------------------------------------------|
A--14----------------------------------------------------------------------------------|
E--------------------------------------------------------------------------------------|


e-12----------------------------------12------------------12---------------|
b----15-12-----12-----------------12--12--14-12-14-12--14-12--14-12-14-14b-|
g----------14b----14-12--14-12-14---------14-12-14-12--14-----14-12-14-14b-|
d--------------------------------------------------------------------------|
a--------------------------------------------------------------------------|
E--------------------------------------------------------------------------|


e----------------------------------------|
b-x-x-x-12-14--x-x-x-12-14--x-x-x-12-14--|
g-x-x-x-12-14--x-x-x-12-14--x-x-x-12-14--|
d----------------------------------------|
a----------------------------------------|
E----------------------------------------|
Tap to rate this tab
 
# A B C D E F G H I J K L M N O P Q R S T U V W X Y Z