Song name
# A B C D E F G H I J K L M N O P Q R S T U V W X Y Z

Stone Roses - I Am The Resurrection chords

Highlighted       Show chord diagrams
Cappo on 4th fret

Tabbed by: scribblingchild  (Find me on Twitter!)
Intro:
E-------------|
B-------------|
G--0----------|
D-------------|
A----3-2-0----|
E-3-----------|        X4


G
Down down, you bring me down

                F
I hear you knocking down my

C                       G
Door and I can't sleep at night

G
Your face, it has no place

                    F
No room for you inside my

C                       G
House I need to be alone


E---------------|
B---------------|
G---------------|
D---------------|
A-------0-------|
E-3-2-3---3-2-0-|

Em
Don't waste your words I don't need

C                     G
Anything from you

Em
I don't care where you've been or

C                         D
What you plan to do

E-----------------|
B-----------------|
G-----------------|
D-----------------|
A-3-3-2-3-2-3-----|
E-------------5-3-|

G
Turn turn, I wish you'd learn

                              F
There's a time and place

              C                       G
For everything I've got to get it through

G
Cut loose, cause you're no use

               F
I couldn't stand another

C                      G
Second in your company

E---------------|
B---------------|
G---------------|
D---------------|
A-------0-------|
E-3-2-3---3-2-0-|

Em
Don't waste your words I don't need

C                     G
Anything from you

Em
I don't care where you've been or

C                         D
What you plan to do

E-----------------|
B-----------------|
G-----------------|
D-----------------|
A-3-3-2-3-2-3-----|
E-------------5-3-|

G
Stone me, why can't you see

                          F
You're a no-one nowhere washed up

C                        G
Baby who'd look better dead

G
Your tongue is far too long

                       F
I don't like the way it sucks and

C                       G
Slurps upon my every word


E---------------|
B---------------|
G---------------|
D---------------|
A-------0-------|
E-3-2-3---3-2-0-|

Em
Don't waste your words I don't need

C                     G
Anything from you

Em
I don't care where you've been or

C                         D----->
What you plan to do

G             Em
(Ooooooh Ooooooh

G             Em            D----->
Ooooooh Ooooooh)

C                              Am                G
I am the resurrection and I am the light

C                    Am                    G
I couldn't ever bring myself to hate you as I'd

Em-----> C-----> G---->
      Like----->

Em-----> C-----> D----->----->

C                              Am                G
I am the resurrection and I am the light

C                    Am                    G
I couldn't ever bring myself to hate you as I'd

Em-----> C-----> G---->
      Like----->

Em-----> C-----> D----->

E----------------------|
B----------------------|
G----------------------|
D----------------------|
A-3-3-2-3-2-3-0--------|
E----------------3-3---| X3

E--------------------------|
B--------------------------|
G--------------------------|
D--------------------------|
A-3-3-2-3-2-3-0------------|
E----------------3---------|


Thank you. xxx
Tap to rate this tab
# A B C D E F G H I J K L M N O P Q R S T U V W X Y Z