Song name
# A B C D E F G H I J K L M N O P Q R S T U V W X Y Z

Stone Roses - Sally Cinnamon chords

Highlighted       Show chord diagrams
-------------------------------------------------------------------------------
                             Sally Cinnamon - Stone Roses
-------------------------------------------------------------------------------
Tabbed by: James Garvey
E-mail: garvey_guy@hotmail.co.uk

Tuning: Standard

**CAPO 3rd**

Hey guys, this is just how I play it, sounds good to me :)


         G           Cadd9           D
|---------3-------------3-------------3---------------------------------------|
|---------3-------------3-------------3---------------------------------------|
|------------------------------------2----------------------------------------|
|----------------------2------------------------------------------------------|
|-------2---------------3-----------------------------------------------------|
|---------3-------------------------------------------------------------------|




  G                       Cadd9
Until sally I was never happy
                   G
I needed so much more
                              Cadd9
Rain clouds oh they used to chase me
                 G
Down they would pour
          Cadd9
Join my tears
G         Cadd9
Allay my fears
D
Sent to me from heaven
Cadd9
Sally cinnamon
          G
You are my world
G                          Cadd9
I pop pop pop blow blow bubble gum
             G
You taste of cherryade
                                Cadd9
There is something here you must show me
                   G
From what you are made
           Cadd9
Sugar and spice
G              Cadd9
And all things nice
D
Sent to me from heaven
Cadd9
Sally cinnamon
          G
You are my world
D
Your eyes are gazing back from
Cadd9
Every little piece of glass
D
You seem to smile from every place
Cadd9
Sally cinnamon
          G
You are my world
G
Then I put the letter back in
                       Cadd9
The place where it was found
G                    Cadd9
It's a pocket in a jacket
G             Cadd9
On a train in town
D
Sent to her from heaven
Cadd9
Sally cinnamon
        G
Your her world
Tap to rate this tab
# A B C D E F G H I J K L M N O P Q R S T U V W X Y Z