Song name
# A B C D E F G H I J K L M N O P Q R S T U V W X Y Z

Stone Roses - Elizabeth My Dear tab

Help us improve GuitareTab! Take a short survey!
From the massively under rated album 'Second Coming', this whole tab is played through twice.


-------0--------------0-------------0--------------0-----|
-----1--------------1-------------1--------------1-------|
---2-------2------2------2------2-------2------2-------2-|
---------------------------------------------------------|
-0--------------0-------------0--------------0-----------|
---------0--------------0-------------0--------------0---|


-------3--------------0--------------0--------------0-----|
-----0--------------1--------------1--------------1-------|
---0-------0------2-------0------0-------0------2-------2-|
---------0------------------------------------------------|
----------------0-------2------3-------2------0-------3---|
-3--------------------------------------------------------|


-------2-------------0--------------1--------------0-----|
-----3-------------1--------------1--------------1-------|
---2------0------2-------2------2-------2------0-------0-|
-----------------------2------3-------3------2-------2---|
-0-------0-----0-----------------------------------------|
---------------------------------------------------------|


-------------------------------0--------------2--------------|
-----------------------------1--------------3----------------|
---0---0---0---------------2-------2------2------------------|
-0--------------------------------------0-------0------------|
-----3---2---3P2---2-----0-------3-----------------2H3-2---0-|
-----------------3---------------------------------------3---|
Related for Elizabeth My Dear tab