Song name
# A B C D E F G H I J K L M N O P Q R S T U V W X Y Z

Stone Sour - Zzyzx Road tab

corrected solo (ver 2):  This is simply "Steve's" tab with corrections made.



-------------------------------------------------------------------------------
                             STONE SOUR - Zzyzx Rd.
-------------------------------------------------------------------------------
Tabbed by: Steve (Skatersic666)
Corrected by: Moby09  on 3/15/08


Tuning: 1/2 Step Down (Eb Ab Db Gb Bb eb)


THIS IS JUST SOLO ONE.

Listen to the song for timing

   N.C
e|---------------------------------------------------------------------------|
B|-15b(17)----(17)b15--13--12-13~~~~~----------------------------------------|
G|------------------------------------------12h14--12~~~~--------12h14--12~~-|
D|------------------------------------12h14----------------12h14-------------|
A|---------------------------------------------------------------------------|
E|---------------------------------------------------------------------------|


e|---------------------------------------------------------------------------|
B|---------------------------------------------------------------------------|
G|---------------------------------------------------------------------------|
D|-/12--10--9--------------9-------------10---------------12----10-----------|
A|----------------10-10-10---10-10-10-10------10-10-10-10--------------------|
E|---------------------------------------------------------------------------|
               P.M______|   P.M_______|      P.M_______|


e|---------------------------------------------------15b(17)r--15b(17)r------|
B|---------------------------------------------------------------------------|
G|---------------------------------/14---12~~~~-\----------------------------|
D|-9h10p9h10p9h10p9\7--------------------------------------------------------|
A|--------------------7/12~~~------------------------------------------------|
E|---------------------------------------------------------------------------|


e|--13-12--------------------------------------------------------------------|
B|--------15-14-12-----------------------------------------------------------|
G|-----------------14-13~~~~-------------------------------------------------|
D|---------------------------------------------------------------------------|
A|---------------------------------------------------------------------------|
E|---------------------------------------------------------------------------|



THEN INTO SOLO TWO WHICH I HAVEN'T WORKED OUT YET


| /  slide up
| \  slide down
| h  hammer-on
| p  pull-off
| ~  vibrato
| +  harmonic
| x  Mute note
===============================================================================
Tap to rate this tab
# A B C D E F G H I J K L M N O P Q R S T U V W X Y Z