Song name
# A B C D E F G H I J K L M N O P Q R S T U V W X Y Z

Stone Sour - Suffer tab

Help us improve GuitareTab! Take a short survey!
Stone Sour
Suffer
Come What(ever) May

Tuning:  B F# b E G# C#

/ - slide up
\ - slide down
h - hammer-on
p - pull-off
~ - vibrato
* - harmonic
x - Mute note

If anyone better than me wants to go for the solo, by all means, have at it.  This is 
all right in order, but there's no timing to speak of;  listen for that.  Watch out for 
the random slides.  Rock.

(Bass, drums, and guitar feedback)

Main riff:       x4
|-----------------|
|-----------------|
|-7\\3--2--x-8\\--|
|-7\\3--2--x-8\\--|
|-5\\1--0--x-6\\--|
|-----------------|


Verse:                                                                    x2
|----------------------------------------12----12-13-12h13p12h13p12--------|
|-10~~~--10-11-10~~~--10-11-10~~~--10-11----10----------------------11-10--|
|------7------------7------------7-----------------------------------------|
|--------------------------------------------------------------------------|
|--------------------------------------------------------------------------|
|--------------------------------------------------------------------------|

                 x4
|-----------------|
|-----------------|
|-7\\3--2--x-8\\--|
|-7\\3--2--x-8\\--|
|-5\\1--0--x-6\\--|
|-----------------|

                                                                          x2
|----------------------------------------12----12-13-12h13p12h13p12--------|
|-10~~~--10-11-10~~~--10-11-10~~~--10-11----10----------------------11-10--|
|------7------------7------------7-----------------------------------------|
|--------------------------------------------------------------------------|
|--------------------------------------------------------------------------|
|--------------------------------------------------------------------------|

                 x4
|-----------------|
|-----------------|
|-7\\3--2--x-8\\--|
|-7\\3--2--x-8\\--|
|-5\\1--0--x-6\\--|
|-----------------|

Chorus:                  x2
|-------------------------|
|-------------------------|
|(2)---(5)--//(10)-(2)----|
|-0-----3---//8-----0-----|
|-0-----3---//8-----0-----|
|-0-----3---//8-----0-----|


Pre-verse:               X4
|-------------------------|
|-------------------------|
|-------------------------|
|-------------------------|
|---------8\\\---------1--|
|-0-0-0-0-8\\\--0--0-0-1--|

                                                                          x2
|----------------------------------------12----12-13-12h13p12h13p12--------|
|-10~~~--10-11-10~~~--10-11-10~~~--10-11----10----------------------11-10--|
|------7------------7------------7-----------------------------------------|
|--------------------------------------------------------------------------|
|--------------------------------------------------------------------------|
|--------------------------------------------------------------------------|

                 x3                                          X4
|-----------------||-----------------------||-----------------|
|-----------------||-----------------------||-----------------|
|-7\\3--2--xx8\\--||-7\\3--2---------------||-7\\3--2--x-8\\--|
|-7\\3--2--xx8\\--||-7\\3--2--xx-----------||-7\\3--2--x-8\\--|
|-5\\1--0--xx6\\--||-5\\1--0--xx-----------||-5\\1--0--x-6\\--|
|-----------------||----------xx-13\\\\\\--||-----------------|


|-------------------------------------------------------|
|-------------------------------------------------------|
|(2)---(5)--//(10)-(2)----(2)---(5)--//(10)-(2)---------|
|-0-----3---//8-----0------0-----3---//8-----0----------|
|-0-----3---//8-----0------0-----3---//8-----0----13\\\-|
|-0-----3---//8-----0------0-----3---//8-----0----13\\\-|


Under solo:              X8
|-------------------------|
|-------------------------|
|-------------------------|
|-------------------------|
|---------8\\\---------1--|
|-0-0-0-0-8\\\--0--0-0-1--|

                              x2
|------------------------------|
|------------------------------|
|(2)---(5)--//(10)-(2)---------|
|-0-----3---//8-----0----------|
|-0-----3---//8-----0---13\\\--|
|-0-----3---//8-----0---13\\\--|

                 x3                                          X4
|-----------------||-----------------------||-----------------|
|-----------------||-----------------------||-----------------|
|-7\\3--2--x-8\\--||-7\\3--2--xx-----------||-7\\3--2--x-8\\--|
|-7\\3--2--x-8\\--||-7\\3--2--xx-----------||-7\\3--2--x-8\\--|
|-5\\1--0--x-6\\--||-5\\1--0--xx-----------||-5\\1--0--x-6\\--|
|-----------------||----------xx-13\\\\\\--||-----------------|

                         x2
|-------------------------|
|-------------------------|
|(2)---(5)--//(10)-(2)----|
|-0-----3---//8-----0-----|
|-0-----3---//8-----0-----|
|-0-----3---//8-----0-----|

                         X4
|-------------------------|
|-------------------------|
|-------------------------|
|-------------------------|
|---------8\\\\--------1--|
|-0-0-0-0-8\\\--0--0-0-1--|

                            X8
|----------------------------|
|----------------------------|
|----------------------------|
|----------------------------|
|---------8\\\---------1///--|
|-0-0-0-0-8\\\--0--0-0-1///--|
Related for Suffer tab