Song name
# A B C D E F G H I J K L M N O P Q R S T U V W X Y Z

Stone Sour - Say Youll Haunt Me tab

Tablature du solo de Say You'll Haunt Me - Stone sour
Ma première tab, solo Appris a l'oreille 

1|-------------------------------------------------------------------------|
2|----/19------------------------------------------------------19-19-------|
3|---------18-21--18-19-18----------------18-18--19-19--21-21--------21----|
4|-------------------------21-19---21-21-----------------------------------|
5|-------------------------------------------------------------------------|
6|-------------------------------------------------------------------------|

1|-------------------------------------------------------------------------|
2|----19------------------------------------------------------19-19--------|
3|--------18-21--18-19-18----------------18-18--19-19--21-21--------21-----|
4|------------------------21-19---21-21------------------------------------|
5|-------------------------------------------------------------------------|
6|-------------------------------------------------------------------------|

1|----------------------------------------------------------------------------|
2|----19----------------------------------------------------------------------|
3|-------19-18----------------------------------------------------------------|
4|-------------19-16---14----14-16--------------------------------------------|
5|------------------------17-------17-16-14-----------------------------------|
6|----------------------------------------------------------------------------|

1|---------------------------------------------------------------------------|
2|---------------------------------------------------------------------------|
3|---------------------------------------------------------------------------|
4|--------------16-14----------------14--------------------------------------|
5|----/14-16-17-------17-16-14-16-17-----17----------------------------------|
6|---------------------------------------------------------------------------|

1|---------------------------------------------------------------------------|
2|----19--------------------------------------------------19-----------------|
3|--------18-21--18-19-18---------------18----19----21-----------------------|
4|------------------------21-19---21-----------------------------------------|
5|---------------------------------------------------------------------------|
6|---------------------------------------------------------------------------|

Tap to rate this tab
 
# A B C D E F G H I J K L M N O P Q R S T U V W X Y Z