Stone Sour - Wicked Game tab

---------------Stone sour         Wicked Game--------------------------------


My first tab this is a very rough version you will have to fill in your own strumming 
so not too difficult.


Second guitar on intro.
e|------------------------------------------------------------------|
a|-0-7---7-5-3-5-3-2h3----------------------------------------------|
d|------------------------------------------------------------------|
g|------------------------------------------------------------------|
b|------------------------------------------------------------------|
E|------------------------------------------------------------------|
Verse and intro.
e|------------------------------------------------------------------|
a|------------------------------------------------------------------|
d|-------------------------------1-1-1-1----------------------------|
g|-----9-9-9-9------7-7-7-7------2-2-1-1----------------------------|
b|-----9-9-9-9------7-7-7-7------2-2-2-2----------------------------|
E|-----7-7-7-7------5-5-5-5-----------------------------------------|


e|--2------2-----------2------2---------0--------0------------------|
a|----3------3----3------2------2---2-----0--------0----0-----------|
d|------4------4-----------2------2---------1--------1--------------|
g|------------------------------------------------------------------|
b|------------------------------------------------------------------|
E|------------------------------------------------------------------|


And thats about all i know i know there is allot missing but its the basic song.
Tap to rate this tab
 
# A B C D E F G H I J K L M N O P Q R S T U V W X Y Z