Song name
# A B C D E F G H I J K L M N O P Q R S T U V W X Y Z

Stone Sour - Say Youll Haunt Me tab

Damn good solo. Easy, but extreamly melodic.

1|--/17-------15----13-12-10-8--10-10--12-12--13-13--15-15--17-17-15--|
2|---------15----15--------------------------------------------------|
3|--------------------------------------------------------------------|
4|--------------------------------------------------------------------| X2
5|--------------------------------------------------------------------|
6|--------------------------------------------------------------------|

1|--1713-12-----------------------------------------------------------------|
2|---------13-------------------------------------------10-8-6-5-6-8-6-5-6--|
3|-----------12--10-9-10-14-12-9-10--/\/-----------9-10---------------------|
4|-----------------------------------------9-10-12--------------------------|
5|--------------------------------------------------------------------------|
6|--------------------------------------------------------------------------|

1|---------------/17-------15----13-12-10-8-12------------------------------|
2|--5h6p5---------------15----15--------------13^-15^-16^-18^-20^-----------|
3|-------7-5-7--------------------------------------------------------------|
4|--------------------------------------------------------------------------|
5|--------------------------------------------------------------------------|
6|--------------------------------------------------------------------------|
Tap to rate this tab
 
# A B C D E F G H I J K L M N O P Q R S T U V W X Y Z