Stone Sour - Imperfect tab

|------------------------------------------------------------------------|
|------------------------------------------------------------------------|
|-15b17~---------------------15b17r15-13-15-b17r15-----------------------|
|--------------------------------------------------13~~------------------|
|------------------------------------------------------------------------|
|------------------------------------------------------------------------|

|------------------------------------------------------------------------|
|------------------------------------------------------------------------|
|-17b19r17-15-13----13--15-17b1917-15-13---------------------------------|
|----------------15----------------------16~~----------------------------|
|------------------------------------------------------------------------|
|------------------------------------------------------------------------|

|------------------------------------------------------------------------|
|------------------------------------------------------------------------|
|----------13-15-17-b19r17b19r17-15-13-11-13-11-13-11~~~-----------------|
|----13-15---------------------------------------------------------------|
|-15---------------------------------------------------------------------|
|------------------------------------------------------------------------|
Tap to rate this tab
 
# A B C D E F G H I J K L M N O P Q R S T U V W X Y Z