Song name
# A B C D E F G H I J K L M N O P Q R S T U V W X Y Z

Stone Sour - Idle Hands Offical tab

Idle Hands-Stone Sour
Stone Sour

Drop B:
B F# B E G# C#

Intro: x2

e-----------------------------------------------------------------
b-----------------------------------------------------------------
g-7-7---7---7-8---------------------------------------------------
d-7-7---7---7-8---5-7-4-0---------7-7---7--3--------------5-4~~~~-
a-5-5-0-5-0-5-6-----------6-5~~~~-5-5-0-5--1--0-3-0-3-0-3---------
d-----------------------------------------------------------------

D5 let ring

Verses: Riff A

e-------------------------------------------------------
b-------------------------------------------------------
g-------------------------------------------------------
d-------------------------------------------------------
a-------------------------------------------------------
d-0--------0-0-0-0---1--0---0---0----0-0--1--0--3~~~~---

e-------------------------------------------------------
b-------------------------------------------------------
g-------------------------------------------------------
d-------------------------------------------------------
a-------------------------------------------------------
d-0--------0-0-0-0---1--0---0---0--3-2-1-0-3-2-1-0------

its not done but u can figure it out its easy


Tap to rate this tab
 
# A B C D E F G H I J K L M N O P Q R S T U V W X Y Z