Song name
# A B C D E F G H I J K L M N O P Q R S T U V W X Y Z

Stone Sour - Blotter Official tab

Blotter-Stone Sour
Stone Sour

Drop B:
B F# B E G# C#

< > = harmonics

Intro: Sound Fx, drum n bass, then

x2
e-----------------------------------------------------------------
b-----------------------------------------------------------------
g-------------------4---------------------------------------------
d-------------------2-------3/4\3-------------------3-------3-3-3-
a-2-0-2-6-5-3-0-2-------2---1/2\1-2-0-2-6-5-3-0-2---1---2---1-1-1-
d-2-0-2-6-5-3-0-2-------2---------2-0-2-6-5-3-0-2-------2---------

Verses: Fig. 1

e-------------------------------------
b-------------------------------------
g---------------------------<5><5><5>-
d-------3-----------3-------<4><4><4>-
a-2-0-2-1-2-0-2-0-2-1-2-0-------------
d-2-0-2---2-0-2-0-2---2-0-0-----------

e-------------------------------------
b-------------------------------------
g-------------------------------------
d-------3-----------3-----------3-----
a-2-0-2-1-2-0-2-0-2-1-2-0-2-3-2-3-----
d-2-0-2---2-0-2-0-2---2-0-2-3-2-------

Tap to rate this tab
# A B C D E F G H I J K L M N O P Q R S T U V W X Y Z