Song name
# A B C D E F G H I J K L M N O P Q R S T U V W X Y Z

Stone Sour - Monolith Official tab

Monolith-Stone Sour
Stone Sour

Drop B:
B F# B E G# C#

Intro: w/ flanger

e-----------------------------------------------------------------
b-----------------------------------------------------------------
g-----7-------------7-------------7-------------7-------------7---
d-7h8---8-7-----7h8---8-7-----7h8---8-7-----7h8---8-7-----7h8---8-
a-----------------------------------------------------------------
d-----------------------------------------------------------------

gtr. 1 w/ flanger

e--------------------------------------------------
b--------------------------------------------------
g---------------------7-----------------------7----
d-7---------------7-8---8-7---------------7-8---8--
a--------------------------------------------------
d--------------------------------------------------

gtr. 2

e--------------------------------------------------
b--------------------------------------------------
g--------------------------------------------------
d-7-7-----7-7-------------7-7-----7-7--------------
a-5-5-----5-5-------------5-5-----5-5--------------
d-0-0-----0-0-------------0-0-----0-0--------------

gtr. 1 w/ flanger

e--------------------------------17----------------
b---------------------14------------15-------------
g----------------14-15--15-14----------15p14-------
d-7------------------------------------------------
a--------------------------------------------------
d--------------------------------------------------

gtr. 2

e--------------------------------------------------
b--------------------------------------------------
g--------------------------------------------------
d-7-7-----7-7-------------7-7-----7-7--------------
a-5-5-----5-5-------------5-5-----5-5--------------
d-0-0-----0-0-------------0-0-----0-0--------------

Verses:

e-----------------------------------------------------------------
b-----------------------------------------------------------------
g-----------------------------------------------------------------
d-----------------------------------------------------------------
a-----------------------------------------------------------------
d-7-7-7-7-8-8-8-8-7-7-7-7-8-8-8-8-7-7-7-7-8-8-8-8-7-7-7-7-8-8-8-8-

Tap to rate this tab
 
# A B C D E F G H I J K L M N O P Q R S T U V W X Y Z