Song name
# A B C D E F G H I J K L M N O P Q R S T U V W X Y Z

Stone Sour - Choose Official tab

Choose-Stone Sour
Stone Sour

Drop B:
B F# B E G# C#

Intro: Bass n Drums, then

e-----------------------------------------------------------------
b-----------------------------------------------------------------
g-----------------------------------------------------------------
d-----------------------------------------------------------------
a-5-----6-------------------------5-----6-------------------------
d---6p5---0-0-0-3-0-0-2-0-3-0-3-0---6p5---0-0-0-3-0-0-2-0-3-0-3-0-

Riff A:

e-----------------------------------------------------------------
b-----------------------------------------------------------------
g-----------------------------------------------------------------
d-----------------------------------------------------------------
a-----------------------------------------------------------------
d-6p0-0-0-0-0-0-0-0-0-0-6---0-6p0-6p0-0-0-0-0-0-0-0-0-0-6---0-6p0-

e-----------------------------------------------------------------
b-----------------------------------------------------------------
g-----------------------------------------------------------------
d-----------------------------------------------------------------
a-----------------------------------------------------------------
d-6p0-0-0-0-0-0-0-0-0-0-6---0-6p0-6p0-0-0-0-0-0-0-0-0-0-6-6br~~---

Tap to rate this tab
# A B C D E F G H I J K L M N O P Q R S T U V W X Y Z