Song name
# A B C D E F G H I J K L M N O P Q R S T U V W X Y Z

Stone Sour - Inside The Cynic tab

Stone Sour - Inside the Cynic
Tabbed by ReinierK (please don't steal my work)

Legend:
h    - hammer on             T   - tap
p    - pull off              TP  - tremolo picking
b    - bend string up        PM  - palm muting
r    - release bend          \n/ - tremolo arm dip; n = amount to dip
/    - slide up              \n  - tremolo arm down
\    - slide down            n/  - tremolo arm up
v    - vibrato               /n\ - tremolo arm inverted dip
t    - right hand tap        =   - hold bend 
s    - legato slide          <>  - volume swell louder/softer
S    - shift slide           x   - muted slash
*    - natural harmonic      o   - single note slash
[n]  - artificial harmonic   /. - pick slide
n(n) - tapped harmonic
tr   - trill

Tuning:
Db - 6th string (thin)
Ab - 5th string
E  - 4th string
B  - 3rd string
Gb - 2nd string
B  - 1st string (thick)



[Intro] (1 guitar)
Dd|-----------------|
Ab|-----------------|
E |-99999999-10-9-7-|
B |-99999999-10-9-7-| x3
Gb|-77777777-8--7-5-|
B |-----------------|

(both guitars)
Dd|--------------------|
Ab|--------------------|
E |-9-10-9-7--9-10-9-7-|
B |-9-10-9-7--9-10-9-7-|
Gb|-7-8--7-5--7-8--7-5-|
B |--------------------|
PM  . .  . .  . .  . .

Dd|-----------------|
Ab|-----------------|
E |-99999999-10-9-7-|
B |-99999999-10-9-7-| x3
Gb|-77777777-8--7-5-|
B |-----------------|

Dd|--------------------|
Ab|--------------------|
E |-9-10-9-7--9-10-9-7-|
B |-9-10-9-7--9-10-9-7-|
Gb|-7-8--7-5--7-8--7-5-|
B |--------------------|
PM  . .  . .  . .  . .

Dd|-----------------|
Ab|-----------------|
E |-99999999-10-9-7-|
B |-99999999-10-9-7-| x3
Gb|-77777777-8--7-5-|
B |-----------------|

Dd|-------------------|
Ab|-------------------|
E |-10-9-7-5--9-7-5-4-|
B |-10-9-7-5--9-7-5-4-|
Gb|-8--7-5-3--7-5-3-2-|
B |-------------------|
PM  .  . . .  . . . .


[Verse 1] (lyrics after 2nd repetition)
Dd|------------------------------|-------------------------|
Ab|------------------------------|-------------------------|
E |------------------------------|-------------------------|
B |------------------------------|-------------58-7-58-5-7-| x2
Gb|-2-2-2-223-2-5--2-2-2-225-2-3-|-2-2-2-223-2-58-7-58-5-7-|
B |-2-2-2-223-2-5--2-2-2-225-2-3-|-2-2-2-223-2-58-7-58-5-7-|
PM  . . . ... . .  . . . ... . .   . . . ... .
    I hear my poisons...


[Chorus] (no lyrics)
Dd|--------------------------|--------------------|
Ab|--------------------------|--------------------|
E |----9-9------9-9------9-9-|-9-10-9-7--9-10-9-7-|
B |-2--9-9---2--9-9---2--9-9-|-9-10-9-7--9-10-9-7-|
Gb|-2--7-7---2--7-7---2--7-7-|-7-8--7-5--7-8--7-5-|
B |-2--------2--------2------|--------------------|
PM                             . .  . .  . .  . .

Dd|--------------------------|-------------------|
Ab|--------------------------|-------------------|
E |----9-9------9-9------9-9-|-10-9-7-5--9-7-5-4-|
B |-2--9-9---2--9-9---2--9-9-|-10-9-7-5--9-7-5-4-|
Gb|-2--7-7---2--7-7---2--7-7-|-8--7-5-3--7-5-3-2-|
B |-2--------2--------2------|-------------------|
PM                             .  . . .  . . . .


[Verse 2]
Dd|------------------------------|-------------------------|
Ab|------------------------------|-------------------------|
E |------------------------------|-------------------------|
B |------------------------------|-------------58-7-58-5-7-| x2
Gb|-2-2-2-223-2-5--2-2-2-225-2-3-|-2-2-2-223-2-58-7-58-5-7-|
B |-2-2-2-223-2-5--2-2-2-225-2-3-|-2-2-2-223-2-58-7-58-5-7-|
PM  . . . ... . .  . . . ... . .   . . . ... .
    I wander aimlessly...


[Chorus]
Dd|--------------------------|--------------------|
Ab|--------------------------|--------------------|
E |----9-9------9-9------9-9-|-9-10-9-7--9-10-9-7-|
B |-2--9-9---2--9-9---2--9-9-|-9-10-9-7--9-10-9-7-|
Gb|-2--7-7---2--7-7---2--7-7-|-7-8--7-5--7-8--7-5-|
B |-2--------2--------2------|--------------------|
PM                             . .  . .  . .  . .
    My head explodes...

Dd|--------------------------|-------------------|
Ab|--------------------------|-------------------|
E |----9-9------9-9------9-9-|-10-9-7-5--9-7-5-4-|
B |-2--9-9---2--9-9---2--9-9-|-10-9-7-5--9-7-5-4-|
Gb|-2--7-7---2--7-7---2--7-7-|-8--7-5-3--7-5-3-2-|
B |-2--------2--------2------|-------------------|
PM                             .  . . .  . . . .
    I won't... exist...


[Solo]
Dd|-------------------------------------------------------------|
Ab|-------------------------------------------------------------|
E |-------------------------------------------------------------|
B |--------------5-3-2--5p3h5h3---------------------------------|
Gb|----3--2h3p2------------------3-5-3-2--5p3h5p3---------------|
B |-4----------------------------------------------5-7-5-4--5-7-|

Dd|-------------------------------------|
Ab|-17----17-----17-----12----12-----\x-|
E |-19b21-19b21v-19b21--14b16-14b16v-\x-|
B |-------------------------------------|
Gb|-------------------------------------|
B |-------------------------------------|

(this part is too fast for me! :-))


[Solo] (rythm guitar)
Dd|------------------------------|-------------------------|
Ab|------------------------------|-------------------------|
E |------------------------------|-------------------------|
B |------------------------------|-------------58-7-58-5-7-| x2
Gb|-2-2-2-223-2-5--2-2-2-225-2-3-|-2-2-2-223-2-58-7-58-5-7-|
B |-2-2-2-223-2-5--2-2-2-225-2-3-|-2-2-2-223-2-58-7-58-5-7-|
PM  . . . ... . .  . . . ... . .   . . . ... .


[Verse 3]
Dd|------------------------------|-------------------------|
Ab|------------------------------|-------------------------|
E |------------------------------|-------------------------|
B |------------------------------|-------------58-7-58-5-7-| x2
Gb|-2-2-2-223-2-5--2-2-2-225-2-3-|-2-2-2-223-2-58-7-58-5-7-|
B |-2-2-2-223-2-5--2-2-2-225-2-3-|-2-2-2-223-2-58-7-58-5-7-|
PM  . . . ... . .  . . . ... . .   . . . ... .
    I cast a weary...


[Chorus]
Dd|--------------------------|--------------------|
Ab|--------------------------|--------------------|
E |----9-9------9-9------9-9-|-9-10-9-7--9-10-9-7-|
B |-2--9-9---2--9-9---2--9-9-|-9-10-9-7--9-10-9-7-|
Gb|-2--7-7---2--7-7---2--7-7-|-7-8--7-5--7-8--7-5-|
B |-2--------2--------2------|--------------------|
PM                             . .  . .  . .  . .
    My head explodes...

Dd|--------------------------|-------------------|
Ab|--------------------------|-------------------|
E |----9-9------9-9------9-9-|-10-9-7-5--9-7-5-4-|
B |-2--9-9---2--9-9---2--9-9-|-10-9-7-5--9-7-5-4-|
Gb|-2--7-7---2--7-7---2--7-7-|-8--7-5-3--7-5-3-2-|
B |-2--------2--------2------|-------------------|
PM                             .  . . .  . . . .
    I won't... exist...


[Bridge] (lyrics after 2nd repetition)
Dd|---------------------------------|
Ab|---------------------------------|
E |---------------------------------|
B |---------------------------------| x5
Gb|---------------------------5-----|
B |-5---8-7-8-7-87--5---8-7-8---8-7-|
    [wah]
    See the lies...

Dd|-------------------------|
Ab|---------------------[5]-|
E |---------------------[5]-|
B |---------------------[5]-|
Gb|-------------------------|
B |-5---8-7-8-7-87--5-------|
    [wah]               TP


[Chorus]
Dd|--------------------------|--------------------|
Ab|--------------------------|--------------------|
E |----9-9------9-9------9-9-|-9-10-9-7--9-10-9-7-|
B |-2--9-9---2--9-9---2--9-9-|-9-10-9-7--9-10-9-7-|
Gb|-2--7-7---2--7-7---2--7-7-|-7-8--7-5--7-8--7-5-|
B |-2--------2--------2------|--------------------|
PM                             . .  . .  . .  . .
    My head explodes...

Dd|--------------------------|-------------------|
Ab|--------------------------|-------------------|
E |----9-9------9-9------9-9-|-10-9-7-5--9-7-5-4-|
B |-2--9-9---2--9-9---2--9-9-|-10-9-7-5--9-7-5-4-|
Gb|-2--7-7---2--7-7---2--7-7-|-8--7-5-3--7-5-3-2-|
B |-2--------2--------2------|-------------------|
PM                             .  . . .  . . . .
    I won't... exist...


[Outro]
Dd|------------------------------|-------------------------|
Ab|------------------------------|-------------------------|
E |------------------------------|-------------------------|
B |------------------------------|-------------58-7-58-5-7-| x2
Gb|-2-2-2-223-2-5--2-2-2-225-2-3-|-2-2-2-223-2-58-7-58-5-7-|
B |-2-2-2-223-2-5--2-2-2-225-2-3-|-2-2-2-223-2-58-7-58-5-7-|
PM  . . . ... . .  . . . ... . .   . . . ... .
    I won't... exist...

Dd|---|
Ab|---|
E |---|
B |-2-|
Gb|-2-|
B |-2-|
Tap to rate this tab
 
# A B C D E F G H I J K L M N O P Q R S T U V W X Y Z