Stone Sour - Orchids tab

Stone Sour - Orchids
Tabbed by ReinierK (please don't steal my work)

Legend:
h    - hammer on             T   - tap
p    - pull off              TP  - tremolo picking
b    - bend string up        PM  - palm muting
r    - release bend          \n/ - tremolo arm dip; n = amount to dip
/    - slide up              \n  - tremolo arm down
\    - slide down            n/  - tremolo arm up
v    - vibrato               /n\ - tremolo arm inverted dip
t    - right hand tap        =   - hold bend 
s    - legato slide          <>  - volume swell louder/softer
S    - shift slide           x   - muted slash
*    - natural harmonic      o   - single note slash
[n]  - artificial harmonic   /. - pick slide
n(n) - tapped harmonic
tr   - trill

Tuning:
Db - 6th string (thin)
Ab - 5th string
E  - 4th string
B  - 3rd string
Gb - 2nd string
B  - 1st string (thick)



[Intro]
Dd|---|-------------------------------------------------|
Ab|---|-------------------------------------------------|
E |---|-------------------------------------------------|
B |-0-|-0-00--------0-00-------0-00------0-00-----------|
Gb|-0-|-0-00--------0-00-------0-00------0-00-6p5-6b8p5-|
B |-0-|-0-00--0-00--0-00-0-00--0-00-0-00-0-00-----------|
PM  <         . ..       . ..       . ..


[Verse 1]
Dd|-------------------------------------------------|
Ab|-------------------------------------------------|
E |-------------------------------------------------|
B |-0-00--------0-00-------0-00------0-00-----------| x2
Gb|-0-00--------0-00-------0-00------0-00-6p5-6b7p5-|
B |-0-00--0-00--0-00-0-00--0-00-0-00-0-00-----------|
PM        . ..       . ..       . ..
    You caught me inside...


[Chorus]
Dd|-----------------|-----------|
Ab|-----------------|-----------|
E |-7-\-5-/-8--/-10-|-7-\-5-/-8-|
B |-----------------|-----------| x4
Gb|-5-\-3-/-6--/-8--|-5-\-3-/-6-|
B |-----------------|-----------|
    Can't begin to explain...

Dd|------------------------|-----------------|
Ab|------------------------|-----------------|
E |------------------------|-----------------|
B |-0-0-1-1-65--0-0-1-1-65-|-0-0-1-1-65--3-3-| x2
Gb|-0-0-1-1-65--0-0-1-1-65-|-0-0-1-1-65--3-3-|
B |-0-0-1-1-65--0-0-1-1-65-|-0-0-1-1-65--3-3-|
    Don't try to be...


Dd|------------------------------------|
Ab|------------------------------------|
E |------------------------------------|
B |------------------------------------|
Gb|------------------------------------|
B |-0-00--0-0-000000--0-00--0-0-000000-|
PM  . ..  . . ......  . ..  . . ......


[Verse 2]
Dd|-------------------------------------------------|
Ab|-------------------------------------------------|
E |-------------------------------------------------|
B |-0-00--------0-00-------0-00------0-00-----------| x2
Gb|-0-00--------0-00-------0-00------0-00-6p5-6b7p5-|
B |-0-00--0-00--0-00-0-00--0-00-0-00-0-00-----------|
PM        . ..       . ..       . ..
    You keep me hidden...


[Chorus]
Dd|-----------------|-----------|
Ab|-----------------|-----------|
E |-7-\-5-/-8--/-10-|-7-\-5-/-8-|
B |-----------------|-----------| x4
Gb|-5-\-3-/-6--/-8--|-5-\-3-/-6-|
B |-----------------|-----------|
    Can't begin to explain...


Dd|------------------------|-----------------|
Ab|------------------------|-----------------|
E |------------------------|-----------------|
B |-0-0-1-1-65--0-0-1-1-65-|-0-0-1-1-65--3-3-| x2
Gb|-0-0-1-1-65--0-0-1-1-65-|-0-0-1-1-65--3-3-|
B |-0-0-1-1-65--0-0-1-1-65-|-0-0-1-1-65--3-3-|
    Don't try to be...


[Bridge]
Dd|---|
Ab|---|
E |---|
B |-0-| let ring
Gb|-0-|
B |-0-|

Dd|-----|
Ab|-[7]-|
E |-[7]-|
B |-[7]-|
Gb|-----|
B |-----|

Dd|------------------------------------|------------------------------------|
Ab|--------------6-----------------6---|--------------------------------6---|
E |---7-8-7----7---8----7-8-7----7---8-|---------------------7-8-7----7---8-|
B |--7------7-7------7-7------7-7------|--------------------7------7-7------|
Gb|-5--------5--------5--------5-------|-------------------5--------5-------|
B |------------------------------------|------------------------------------|
    I have nothing...

Dd|-------------------------------------------------|
Ab|-------------------------------------------------|
E |-------------------------------------------------|
B |-0-00--------0-00-------0-00------0-00-----------| x2
Gb|-0-00--------0-00-------0-00------0-00-6p5-6b7p5-|
B |-0-00--0-00--0-00-0-00--0-00-0-00-0-00-----------|
PM        . ..       . ..       . ..


[Verse 3]
Dd|-------------------------------------------------|
Ab|-------------------------------------------------|
E |-------------------------------------------------|
B |-0-00--------0-00-------0-00------0-00-----------| x2
Gb|-0-00--------0-00-------0-00------0-00-6p5-6b7p5-|
B |-0-00--0-00--0-00-0-00--0-00-0-00-0-00-----------|
PM        . ..       . ..       . ..
    I live at arm's length...


[Chorus]
Dd|-----------------|-----------|
Ab|-----------------|-----------|
E |-7-\-5-/-8--/-10-|-7-\-5-/-8-|
B |-----------------|-----------| x4
Gb|-5-\-3-/-6--/-8--|-5-\-3-/-6-|
B |-----------------|-----------|
    Can't begin to explain...


Dd|------------------------|-----------------|
Ab|------------------------|-----------------|
E |------------------------|-----------------|
B |-0-0-1-1-65--0-0-1-1-65-|-0-0-1-1-65--3-3-| x2
Gb|-0-0-1-1-65--0-0-1-1-65-|-0-0-1-1-65--3-3-|
B |-0-0-1-1-65--0-0-1-1-65-|-0-0-1-1-65--3-3-|
    Don't try to be...


[Outro]
Dd|------------------------------------|
Ab|------------------------------------|
E |------------------------------------|
B |------------------------------------| x4
Gb|------------------------------------|
B |-0-00--0-0-000000--0-00--0-0-000000-|
PM  . ..  . . ......  . ..  . . ......
Tap to rate this tab
 
# A B C D E F G H I J K L M N O P Q R S T U V W X Y Z