Stone Sour - Hesitate tab

-------------------------------------------------------------------------------
Hesitate  Stone Sour
-------------------------------------------------------------------------------
Tabbed by: Nate

Email: ntl1014@students.pjc.edu

Tuning: Eb (down one-half step)

Eb|-----------------|
Bb|---0-----0---0---|
Gb|---4-----6---8---| X3
Db|-----------------|
Ab|-----------------|
Eb|-----------------|

Then:

Eb|----------------------0---|
Bb|---0--0---0---0-----0-----|
Gb|---3----3---3---3h4-------|
Db|--------------------------|
Ab|--------------------------|
Eb|--------------------------|

Chorus:

Eb|------------------------------------------------------------|
Bb|------------------------------------------------------------|
Gb|--------------------------------------------------------8---|
Db|---9--9-9-9-9-9-9-9-9-9-9-9-9--6--6-6-6-6-6-6-6-6-6-6-6-8---|
Ab|---9--9-9-9-9-9-9-9-9-9-9-9-9--6--6-6-6-6-6-6-6-6-6-6-6-6---|
Eb|---7--7-7-7-7-7-7-7-7-7-7-7-6--4--4-4-4-4-4-4-4-4-4-4-4-----|

                                                               last time   
Eb|-------------------------------------------------|----------|-------|
Bb|-------------------------------------------------|---------o|-------|
Gb|---9--9-9-9-9-9-9-9-9-9-9-9-9-9-9----------------|-9-9--9---|-9-9---|
Db|---9--9-9-9-9-9-9-9-9-9-9-9-9-9-9-9--9-9-9-9-9-9-|-9-9--9---|-9-9---|
Ab|---7--7-7-7-7-7-7-7-7-7-7-7-7-7-7-9--9-9-9-9-9-9-|-7-7--7--o|-7-7---|
Eb|----------------------------------7--7-7-7-7-7-7-|----------|-------|

Solo:

Eb|---/12-11--------------------------|
Bb|----------12-----------------------|
Gb|-------------11~--/9-8-9b11r9-8~---|
Db|-----------------------------------|
Ab|-----------------------------------|
Eb|-----------------------------------|

Eb|---/12-11--------------------------------------|
Bb|----------12-----------------------------------|
Gb|-------------11~--/9-8-9/11-13-11~--9p8h9-11---|
Db|-----------------------------------------------|
Ab|-----------------------------------------------|
Eb|-----------------------------------------------|

Eb|---/12-11----------------------------------------|
Bb|----------12-------------------------------------|
Gb|-------------11~--/9-8-9b11r9-8~--/8-6-4~---3~---|
Db|-------------------------------------------------|
Ab|-------------------------------------------------|
Eb|-------------------------------------------------|

Thanks and enjoy!

Tap to rate this tab
 
# A B C D E F G H I J K L M N O P Q R S T U V W X Y Z