Stone Sour - Get Inside tab

Tabbed By: Unknown
Song:Get Inside (Solo)
Artist:Stone Sour

Im pretty sure this is right because it sounds exactly right and is a killer of a solo
This the tuning:
B F# B E A C#

|--------------14--17-14----------17-14-----------------------------------------|
|-----------15-----------15-------------15--------------------------------------|
|--14----16-----------------16-14----------16-14---16-----------------14--------|
|-------------------------------------------------------------14--16------16----|
|-------------------------------------------------------------------------------|
|-------------------------------------------------------------------------------|

|-------------------------------------------------------------------------------|
|-------------------------------------------------------------------------------|
|-------------------------------------------------------------------------------|
|---------------------------S-----S--------------------16----18-----------------|
|-----------14----14----14----19----16----16----16------------------------------|
|-------------------------------------------------------------------------------|

|-----------------------------------------------------------------------------------|
|--------------------------------------------14-16-17-16-14-------------------------|
|--14----------------14----------------14-16----------------16-14----------------14-|
|-----18-16-15-16-18----18-16-15-16-18----------------------------18-16-15-16-18----|
|-----------------------------------------------------------------------------------|
|-----------------------------------------------------------------------------------|

|-----------------------------------|
|----------------14-----------------|
|-18-16-15-16-18----18-16-14-16-18--|
|-----------------------------------|
|-----------------------------------|
|-----------------------------------|

Are you ready for this bit?

|--------------14-16-17-16-14------------------------------------------------------|
|------14-16-17-----------------------------14-16-17---16-14-----------------------|
|-14-16-----------------------16-14-13-14-16------------------------------13-15-17-|
|-----------------------------------------------------------16-14-13-14-16---------|
|----------------------------------------------------------------------------------|
|----------------------------------------------------------------------------------|

|----------14-16-17-20-(21)----|
|-14-16-17---------------------|
|------------------------------|
|------------------------------|
|------------------------------|
|------------------------------|

I hope you will enjoy playing this.
If you want more tabs visit www.expage.com/aztabs
Tap to rate this tab
 
# A B C D E F G H I J K L M N O P Q R S T U V W X Y Z