Song name
# A B C D E F G H I J K L M N O P Q R S T U V W X Y Z

Stone Sour - Say Youll Haunt Me tab

-------------------------------------------------------------------------------
			     Say you'll haunt me - Stone Sour
-------------------------------------------------------------------------------
Tabbed by: vagabond9
Email:

Tuning: Standard

e|-/14-12-10-9-7-5--77-99-1010-1212--1414-12-14-12-10-9-7-5--77-99-1010-1212-|
B|---------------------------------------------------------------------------|
G|---------------------------------------------------------------------------|
D|---------------------------------------------------------------------------|
A|---------------------------------------------------------------------------|
E|---------------------------------------------------------------------------|

e|-1414-12-14-10-9-----------------------------------------------------------|
B|-----------------10--------------------------7-----------------------------|
G|-------------------~9-7-6-7-9/11-7-~6----6-7---9-7-6-7-7/9-7-6-7-7---------|
D|---------------------------------------9---------------------------9-7-9---|
A|---------------------------------------------------------------------------|
E|---------------------------------------------------------------------------|

e|-/14-12-10-9-7-5--77-9-10-12-14--------------------------------------------|
B|---------------------------------------------------------------------------|
G|---------------------------------------------------------------------------|
D|---------------------------------------------------------------------------|
A|---------------------------------------------------------------------------|
E|---------------------------------------------------------------------------|

************************************

| /   slide up
| \   slide down
| h   hammer-on
| p   pull-off
| ~   vibrato
| +   harmonic
| x   Mute note
| b   Bend
| pb  Pre-bend
| br  Bend release
| pbr Pre-bend release
| brb Bend release bend

************************************
Tap to rate this tab
# A B C D E F G H I J K L M N O P Q R S T U V W X Y Z