Song name
# A B C D E F G H I J K L M N O P Q R S T U V W X Y Z

Stone Sour - Orchids tab

Help us improve GuitareTab! Take a short survey!
intro pt.1(this is just the bass, guitar doesn't play here)
C#---------------------------------------------------------------------|
G#---------------------------------------------------------------------|
 E---------------------------------------------------------------------|
 B-------2-2-2h3-2~-------2-2-2h5-3~-------2-2-2h3-2~-------2-2-2h5-3~-|
F#-0h2-3------------0h2-3------------0h2-3------------0h2-3------------|
 B---------------------------------------------------------------------|

intro pt. 2/verse
C#--------------------------------------------------------------------|
G#--------------------------------------------------------------------|
 E--------------------------------------------------------------------|
 B-0--0-0---0-0-0----0--0-0---0-0-0----0--0-0---0-0-0----0--0-0--1p0-0|
F#-0--0-0---0-0-0----0--0-0---0-0-0----0--0-0---0-0-0----0--0-0-------|
 B-0--0-0---0-0-0----0--0-0---0-0-0----0--0-0---0-0-0----0--0-0-------|
                                                                      |
C#--------------------------------------------------------------------|
G#--------------------------------------------------------------------|
 E--------------------------------------------------------------------|
 B-7--7-7---7-7-7----7--7-7---7-7-7----7--7-7---7-7-7----7--7-7------0|
F#-5--5-5---5-5-5----5--5-5---5-5-5----5--5-5---5-5-5----5--5-5--6p5-5|
 B-0--0-0---0-0-0----0--0-0---0-0-0----0--0-0---0-0-0----0--0-0-------|

pre-chorus
C#--------------------------------------------------------------------|
G#--------------------------------------------------------------------|
 E-7~-5~--8~----10~---7~--5~--8~--------------------------------------|
 B-x~-x~--x~----x~~---x~--x~--x~--------------------------------------|
F#-5~-3~--6~----8~~---5~--3~--6~--------------------------------------|
 B--------------------------------------------------------------------|

chorus
C#--------------------------------------------------------------------|
G#--------------------------------------------------------------------|
 E--------------------------------------------------------------------|
 B--------------------------------------------------------------------|
F#-0--0-0-1--0-6-5--0--0-0-1--0-6-5--0--0-0-1--0-6-5--3-3-3-----------|
 B-0--0-0-1--0-6-5--0--0-0-1--0-6-5--0--0-0-1--0-6-5--3-3-3-----------|

bridge/outro
C#----|---------------------------------------------------------------|
G#----|----------6--------------6-------------------------------------|
 E----|-7-8-7--7---8~--7-8-7--7---8~----------------------------------|
 B-7~-|---------------------------------------------------------------|
F#-5~-|---------------------------------------------------------------|
 B-0~-|---------------------------------------------------------------|
(only
in the
bridge)
Related for Orchids tab