Song name
# A B C D E F G H I J K L M N O P Q R S T U V W X Y Z

Stone Sour - Hesitate tab

this is my second tab. it is in e flat. it is pretty much 100% correct. check out my 
"Imperfect" tab. its pretty legit as well. i noticed nobody has posted just the solo. have 
fun peeps and creeps

e|-11/12-11---------------------11/12-11-----------------------------------|
B|----------12---------------------------12--------------------------------|
G|-------------11-9-8-9/11-9-8--------------11-9-8-9/11-13-11-9h11-8h9-----|
D|-------------------------------------------------------------------------|
A|-------------------------------------------------------------------------|
E|-------------------------------------------------------------------------|

e|-11/12-11------------------------------------------0---------------------|
B|----------12-------------------------------------0-----------------------|
G|-------------11-9-8-9/11-9-8--4h6-4--333333333/4-------------------------|
D|-------------------------------------------------------------------------|
A|-------------------------------------------------------------------------|
E|-------------------------------------------------------------------------|
Tap to rate this tab
# A B C D E F G H I J K L M N O P Q R S T U V W X Y Z