Song name
# A B C D E F G H I J K L M N O P Q R S T U V W X Y Z

Stone Sour - Wicked Game chords

Highlighted       Show chord diagrams
tabbet by InFuz

Standard tuning.
Capo on 1th fret.

Guitar #1: Pattern: down__down__up_down_up
(use a mediator, to match the original)

Intro:
Am G D D x2

Am
World was on fire
       G                     D
And No one could save me but you.
Am                       G                   D
Strange what desire will make foolish people do.
    Am                   G                      D
And I never dreamed that I'd meet somebody like you,
    Am                   G                      D
And I never dreamed that I'd lose somebody like you.

    Am G                      D
No, I   don't want to fall in love
    Am G                      D
No, I   don't want to fall in love
     Am  G D
With you
     Am  G D
With you

Am            G
What a wicked game to play
D
To make me feel this way
Am            G
What a wicked thing to do
D
To make me dream of you
Am            G
What a wicked thing to say
D
You never felt that way
Am            G
What a wicked thing to do
D
To make me dream of you

     Am G                      D
And, I   don't want to fall in love
     Am G                      D
No,  I   don't want to fall in love
     Am  G D
With you
     Am  G D
With you

Am G D X2

Am
World was on fire
    G                        D
And no one could save me but you.
Am                       G                   D
Strange what desire will make foolish people do
    Am                   G                      D
And I never dreamed that I'd meet somebody like you
    Am                   G                      D
And I never dreamed that I'd lose somebody like you

    Am G                      D
No, I   don't want to fall in love
    Am G                      D
No, I   don't want to fall in love
    Am G  D
No, I...
    Am G  D
No, I...

Am     G        D
Nobody loves no one


Guitar #2 (not fully)
Intro: Solo (capo on 1th fret)
----------------------
----------------------
0-9--7-5-4-5\4-0-4\2--
----------------------
----------------------
----------------------
or just
--------------------
--------------------
0-9--7-5-4-5-4-0-2--
--------------------
--------------------
--------------------

Chorus #2:
...With you    
   With you
Am G D X2

Chords Am G D play: strings 5-1-2-3-1-2-3-1 get
(capo on 1th fret)
-----------0-----0-----0----3-----3-----3-----2---2---2---------|

-------------1-----1----------3-----3----------3---3------------|

---------------2----2-----------0----0----------2---2-----------|

----------------------------------------------------------------|

---------0----------------2-----------------0-------------------|

----------------------------------------------------------------|
Tap to rate this tab
 
# A B C D E F G H I J K L M N O P Q R S T U V W X Y Z