Song name
# A B C D E F G H I J K L M N O P Q R S T U V W X Y Z

Stone Sour - Zzyzx Rd tab

                              1st solo in Zzyzx 

          Harm.
|----------12------------------------------------------------------|
|-14b-----------14br-12\11--11h12----------------------------------|
|--------------------------------------11h13-11~~------11h13-11~~--|
|---------------------------------11h13-----------11h13------------|
|------------------------------------------------------------------|
|------------------------------------------------------------------|



|---------------------------------------------------------------------------|
|---------------------------------------------------------------------------|
|--6~---4~--3~--------3-----------4-----------5-----------------------------|
|-------------4--4--4----4--4--4-----4--4--4-----5-4h5-4h5-4h5-4h5----------|
|------------------------------------------------------------------4---6/11~|
|---------------------------------------------------------------------------|
        PM   .  .  .    .  .  .     .  .  .




|---------------14b-----14b-----14-12-11-----11---------------------|
|-----------------------------------------14----14------------------|
|-13b----11~~\-------------------------------------13-11~-----------|
|---------------------------------------------------------11--13~~-\|
|-------------------------------------------------------------------|
|-------------------------------------------------------------------|



b     =   bend
br    =   bend release
h     =   hammer on
Pm    =   palm mute
~     =   vibrato
\     =   slide down
Harm. =   harmonic
Tap to rate this tab
# A B C D E F G H I J K L M N O P Q R S T U V W X Y Z