Song name
# A B C D E F G H I J K L M N O P Q R S T U V W X Y Z

Stone Sour - The Travelers Part 2 tab

-------------------------------------------------------------------------------
                             The Travelers, Pt. 2 - Stone Sour
-------------------------------------------------------------------------------
Tabbed by: JJ
E-mail: jirkujaroslav@seznam.cz

Tuning: 1/2 step down


Constructive comments and corrections will be ackonwledged!

I used the original album version of this song and youtubeīs:
Stone Sour - Club Nokia 2013 [Full Show] HD


Originally there are 3 guitars in this song, but I decided to simplify this a bit, just 
for playing along (thereīs really good G-pro version here for you guitar nerds). So 
letīs split this tab in:
Guitar 1 "rhythm"
&
Guitar 2 "solo"


Intro
Guitar 1 (distorted)
eb|---------------------------------------------------------------------------|
Bb|---------------------------------------------------------------------------|
Gb|-444--22------------------77--4-5~ -------555-44---------------77--4-5~ ---|
Db|-444--22---5-2~ ------555-77--4-5~ -------555-44-5-2~ -----555-77--4-5~ ---|
Ab|-222--00---5-2~ ------555-55--2-3~ -------333-22-5-2~ -----555-55--2-3~ ---|
Eb|-----------3-0~ ------333------------------------3-0~ -----333-------------|

Guitar 2 (distorted)
eb|-----------------------------10-10------------------------------------10-10------------|
Bb|-10s12-12-12-10-10-8-5~ -888-------12-13~ --13-13-13-12-12-8-5~ --888-------12-13~ ----|
Gb|---------------------------------------------------------------------------------------|
Db|---------------------------------------------------------------------------------------|
Ab|---------------------------------------------------------------------------------------|
Eb|---------------------------------------------------------------------------------------|


then (8x)
Guitar 1 (distorted)
eb|---------------------------------------------------------------------------|
Bb|---------------------------------------------------------------------------|
Gb|---------------------------------------------------------------------------|
Db|--22~ ---------------------------------------------------------------------|
Ab|--22~ ---------------------------------------------------------------------|
Eb|--00~ ---------------------------------------------------------------------|

Guitar 2 (distorted)
eb|---------------------------------------------------------------------------|
Bb|---------10-10-9-9-5-6~ ---------------------------------------------------|
Gb|---------------------------------------------------------------------------|
Db|---------------------------------------------------------------------------|
Ab|---------------------------------------------------------------------------|
Eb|---------------------------------------------------------------------------|


Break, "My body's broken..."
Guitar 2 (clean)
     Ebm7
eb|---------------------------------------------------------------------------|
Bb|------8-7-8----------------------------------------------------------------|
Gb|---------------------------------------------------------------------------|
Db|---9~ ---------------------------------------------------------------------|
Ab|---------------------------------------------------------------------------|
Eb|---------------------------------------------------------------------------|

after awhile Guitar 1 (distorted)
eb|---------------------------------------------------------------------------|
Bb|---------------------------------------------------------------------------|
Gb|----5~ --------------------------------------------------------------------|
Db|----5~ --------------------------------------------------------------------|
Ab|----3~ --------------------------------------------------------------------|
Eb|---------------------------------------------------------------------------|


"Maybe life is nothing more..."

Db5 - Cb5



"I donīt need a conscience..."
2x palm-muted
eb|---------------------------------------------------------------------------|
Bb|---------------------------------------------------------------------------|
Gb|---------------------------------------------------------------------------|
Db|---55555555-77777777-------------------------------------------------------|
Ab|---33333333-55555555-------------------------------------------------------|
Eb|---------------------------------------------------------------------------|


then Cb5-Db5


and then this ītil the end (end on Eb5~)
Guitar 1 (distorted)
eb|---------------------------------------------------------------------------|
Bb|---------------------------------------------------------------------------|
Gb|---------------------------------------------------------------------------|
Db|--22~ ---------------------------------------------------------------------|
Ab|--22~ ---------------------------------------------------------------------|
Eb|--00~ ---------------------------------------------------------------------|

Guitar 2 (distorted)
eb|---------------------------------------------------------------------------|
Bb|---------10-10-9-9-5-6~ ---------------------------------------------------|
Gb|---------------------------------------------------------------------------|
Db|---------------------------------------------------------------------------|
Ab|---------------------------------------------------------------------------|
Eb|---------------------------------------------------------------------------|
Tap to rate this tab
# A B C D E F G H I J K L M N O P Q R S T U V W X Y Z