Song name
# A B C D E F G H I J K L M N O P Q R S T U V W X Y Z

Stone Sour - Rules Of Evidence tab

I also couldn't find many extremely accurate tabs of this underrated Stone Sour bonus 
song, so here you are! Enjoy!

Artist - Stone Sour
Album - Stone Sour
Song - Rules Of Evidence (Track 14)
Tabbed by - Basher89

Guitar 1 (Josh Rand) - Rhythm (B F# B E G# C#)
Guitar 2 (Jim Root)  - Lead (B F# B E G# C#)

b   - Bend
PM  - Palm Mute
/   - Slide Up
\   - Slide Down
~   - Ring Out
*   - Detail (Check below tablature to find details)

        Intro

Guitars 1 + 2

C#|--------|
G#|--------|
E |--------|
B |-0------|
F#|-0------|
B |-0------|
(Volume swell)

Guitar 1

C#|-------------------------------------------------------|
G#|-------------------------------------------------------|
E |--------------------5----------------------------------| 4x
B |-0-0-0-6------0-0-0-5---0-3-2-0-0-0-6------3---2---3-2-|
F#|-0-0-0-6------0-0-0-3---0-3-2-0-0-0-6------3---2---3-2-|
B |-0-0-0-6------0-0-0-----0-3-2-0-0-0-6------3---2---3-2-|
PM| - - -        - - -     - - - - - -                    |

Guitar 2

C#|-------------------------------------------------------|
G#|-------------------------------------------------------|
E |-------8------------5---------------8------5---4---5-4-| 4x
B |-0-0-0-x------0-0-0-x---0-3-2-0-0-0-x------x---x---x-x-|
F#|-0-0-0-6------0-0-0-3---0-3-2-0-0-0-6------3---2---3-2-|
B |-0-0-0--------0-0-0-----0-3-2-0-0-0--------------------|
PM| - - -        - - -     - - - - - -                    |

Lyrics:

COME ON!

Guitar 1

C#|-------------------------------------------------------------------|
G#|-------------------------------------------------------------------|
E |-------------------------------------------------------------------| 2x
B |-0-3-0-0---0-3-0---0-3-0-3/6---5---0-3-0-0---0-3-0---0-3-5-5---5-3-|
F#|-0-3-0-0---0-3-0---0-3-0-3/6---5---0-3-0-0---0-3-0---0-3-5-5---5-3-|
B |-0-3-0-0---0-3-0---0-3-0-3/6---5---0-3-0-0---0-3-0---0-3-5-5---5-3-|

Guitar 2

C#|-------------------------------------------------------------------|
G#|-------------------------------------------------------------------|
E |---5---------5-------5---5/8---7-----5---------5-------5-7-7---7-5-| 2x
B |---x---------x-------x---x-x---x-----x---------x-------x-x-x---x-x-|
F#|-0-3-0-0---0-3-0---0-3-0-3/6---5---0-3-0-0---0-3-0---0-3-5-5---5-3-|
B |-------------------------------------------------------------------|

        Verse

Guitar 1

C#|-------------------------------------------------------------------|
G#|-------------------------------------------------------------------|
E |-------------------------------------------------------------------| 4x
B |-------------------------------------------------------------------|
F#|-------------------------------------------------------------------|
B |-0-3-0-0---0-3-0---0-3-0-3/6---5---0-3-0-0---0-3-0---0-3-5-5---5-3-|
PM| - - - -   - - -   - - -           - - - -   - - -   -             |

Guitar 2

(Stays silent for first two staves and joins on the third time)

C#|-------------------------|
G#|-------------------------|
E |-7*-7*----------------8*-| 2x
B |-------7*-7*-------5*----|
F#|-------------8*-8*-------|
B |-------------------------|

*Everywhere you see that next to a note, play that note eight times (strumming quickly, 
of course)

Lyrics:

You help me survive, you're the reason I'm alive
Speak softly, cyanide - passed from your mouth into mine
Your breathing sounds like the sickest music playing backwards in my head
Contagions so hellacious - you can't find the words, so you scream instead

        Pre-Chorus

Sorry if the tabs look messed up timewise. You'll have to figure out the rhythm yourself.

Guitars 1 + 2

C#|-------------------------------------------------------------------------|
G#|-------------------------------------------------------------------------|
E |-----7---------8---------------------------------------------------------|
B |-5---7---5-6---8---6---2-3-3--2--0--2--0--2--3--2-0-0--2--0--2--3--2--0--|
F#|-5---5---5-6---6---6---2-3-3--2--0--2--0--2--3--2-0-0--2--0--2--3--2--0--|
B |-5-------5-6-------6---2-3-3--2--0--2--0--2--3--2-0-0--2--0--2--3--2--0--|
PM|                       - - -  -  -  -  -  -  -  - - -  -  -  -  -  -  -  |

Guitar 1

C#|------------------------------------------------------------|
G#|------------------------------------------------------------|
E |-----7---------8--------------------------------------------|
B |-5---7---5-6---8---6---7-8-7-7-7-7-9-10---9-7-9-11-12-11-9--|
F#|-5---5---5-6---6---6---7-8-7-7-7-7-9-10---9-7-9-11-12-11-9--|
B |-5-------5-6-------6---7-8-7-7-7-7-9-10---9-7-9-11-12-11-9--|

Guitar 2

C#|------------------------------------------------------------|
G#|------------------------------------------------------------|
E |-----7---------8-------9-109-9-9-9-1112---119-1113-14-13-11-|
B |-5---7---5-6---8---6---x-x-x-x-x-x-x-x----x-x-x-x--x--x--x--|
F#|-5---5---5-6---6---6---7-8-7-7-7-7-9-10---9-7-9-11-12-11-9--|
B |-5-------5-6-------6----------------------------------------|

Lyrics:

This lifeless ordinary
My righteous unsuspecting
I have a secret; you are a dichotomy

        Chorus

Guitar 1

C#|------------------------------|
G#|------------------------------|
E |-------7----------------------| 3x
B |-3-2-0-7---0-6-5---0-2-3------|
F#|-3-2-0-5---0-6-5---0-2-3------|
B |-3-2-0-----0-6-5---0-2-3------|

Guitar 2

C#|------------------------------|
G#|------------------------------|
E |-5-4---7-----8-7-----4-5------| 3x
B |-x-x---x-----x-x-----x-x------|
F#|-3-2-0-5---0-6-5---0-2-3------|
B |------------------------------|



Guitar 1

C#|------------------------|
G#|------------------------|
E |------------------------|
B |-3-2-0-3-2-0-2-3-0------|
F#|-3-2-0-3-2-0-2-3-0------|
B |-3-2-0-3-2-0-2-3-0------|
PM| - - - - - -            |

Guitar 2

C#|------------------------|
G#|------------------------|
E |-----------------7*-----|
B |-----------------7*-----|
F#|-----------------5*-----|
B |-3-2-0-3-2-0-2-3--------|

*Very weird effect played, could possibly be artificial harmonic. I have no idea

Lyrics:

What won't kill me makes me
What won't love me hates me
What won't kill me dies
Come on!

        Bridge

Guitars 1 + 2

C#|-----------------------------------------------------------------|
G#|-----------------------------------------------------------------|
E |-5-7-7-7-7-7-7-7-7-7-7-7---------5-7-7-7-7-7-7-7-7-7-------------| 2x
B |-5-7-7-7-7-7-7-7-7-7-7-7-6---5---5-7-7-7-7-7-7-7-7-7-3-5-5---5p3-|
F#|-3-5-5-5-5-5-5-5-5-5-5-5-6---5---3-5-5-5-5-5-5-5-5-5-3-5-5---5p3-|
B |-------------------------6---5-----------------------3-5-5---5p3-|

        Verse 2

(Same guitar parts, different lyrics)

You could help me hide, you could keep me inside
Heart broken, petrified - what am I supposed to do if you don't try?
Mad symmetry, senseless poetry, laying naked on my bed
Contracted and frustrated, you won't say a word and your eyes are dead

        Pre-Chorus

(Same guitar and lyrics)

        Chorus

Guitar 1

C#|------------------------------|
G#|------------------------------|
E |-------7----------------------| 3x
B |-3-2-0-7---0-6-5---0-2-3------|
F#|-3-2-0-5---0-6-5---0-2-3------|
B |-3-2-0-----0-6-5---0-2-3------|

Guitar 2

C#|------------------------------|
G#|------------------------------|
E |-5-4---7-----8-7-----4-5------| 3x
B |-x-x---x-----x-x-----x-x------|
F#|-3-2-0-5---0-6-5---0-2-3------|
B |------------------------------|



Guitar 1

C#|---------------------------------|
G#|---------------------------------|
E |---------------------------------|
B |-3-2-0-3-2-0-2-3-0-0-0-0-0-0-0-0-|
F#|-3-2-0-3-2-0-2-3-0-0-0-0-0-0-0-0-|
B |-3-2-0-3-2-0-2-3-0-0-0-0-0-0-0-0-|
PM| - - - - - - - - - - - - - -     |

Guitar 2

C#|---------------------------------|
G#|---------------------------------|
E |---------------------------------|
B |-----------------------------0-0-|
F#|-------------------------0-0-0-0-|
B |-3-2-0-3-2-0-2-3-0-0-0-0-0-0-0-0-|

Lyrics:

What won't kill me makes me
What won't love me hates me
What won't kill me... DIES

Guitar 1

C#|------------------------------|
G#|------------------------------|
E |-------7----------------------| 3x
B |-3-2-0-7---0-6-5---0-2-3------|
F#|-3-2-0-5---0-6-5---0-2-3------|
B |-3-2-0-----0-6-5---0-2-3------|

Guitar 2

C#|------------------------------|
G#|------------------------------|
E |-5-4---7-----8-7-----4-5------| 3x
B |-x-x---x-----x-x-----x-x------|
F#|-3-2-0-5---0-6-5---0-2-3------|
B |------------------------------|

Guitar 1

C#|----------------------------------------|
G#|----------------------------------------|
E |----------------------------------------|
B |-3-2-0-3-2-0-2-3-0~~~~~~~~~~~~~~~~~~~~~~|
F#|-3-2-0-3-2-0-2-3-0~~~~~~~~~~~~~~~~~~~~~~|
B |-3-2-0-3-2-0-2-3-0~~~~~~~~~~~~~~~~~~~~~~|
PM| - - - - - -                            |

Guitar 2

C#|----------------------------------------|
G#|----------------------------------------|
E |-----------------7~~~~~~~~~~~~~~~~~~~~~~|
B |-3-2-0-3-2-0-2-3-x----------------------|
F#|-3-2-0-3-2-0-2-3-5~~~~~~~~~~~~~~~~~~~~~~|
B |-3-2-0-3-2-0-2-3------------------------|
PM| - - - - - -                            |

Lyrics:

What won't kill me makes me
What won't love me hates me
What won't kill me dies...

        Outro

(No guitar, just let the open B ring out for a while. Just a piano and a few incoherent noises)

Lyrics:

The whole f***ing world's against us dude, I swear to god...



Hopefully it sounds correct to you guys. Corrections are appreciated! Send
me a message for any suggestions, whether it be System of a Down, Stone
Sour, whatever it may be. And again, sorry for the weird timing in the
tablature.
Tap to rate this tab
 
# A B C D E F G H I J K L M N O P Q R S T U V W X Y Z