Song name
# A B C D E F G H I J K L M N O P Q R S T U V W X Y Z

Stone Sour - Zzyxz Rd tab

Tuning Standard.. I transcribed for us who have a floyd rose in standard and are lazy so 
dont wanna tune it half down here yall go


|---------------------------------------------------------------------|
|-14b-Slow bend--14b(16)14-12p11-11-12--------------------------------|
|-------------------------------------------11h13-11~-------11h13-11~-|
|--------------------------------------11h13-----------11h13----------|
|---------------------------------------------------------------------|
|---------------------------------------------------------------------|

|--------------------------------------------------------------------------|
|--------------------------------------------------------------------------|
|--------------------------------------------------------------------------|
|-11~--9~-8~---------8---------9------------12-10-9h10-9h10-9h10-9h10------|
|------------9--9--9----9--9--9-----9--9--9---------------------------6/12~|
|--------------------------------------------------------------------------|
             .  .  .    .  .  .     .  .  .


|---------------14b(16)-14b(16)--14-12-11----11-----------|
|-----------------------------------------14----14--------|
|-11b(13)-11~\-------------------------------------11-12~-|
|---------------------------------------------------------|
|---------------------------------------------------------|
|---------------------------------------------------------|
Tap to rate this tab
# A B C D E F G H I J K L M N O P Q R S T U V W X Y Z