Song name
# A B C D E F G H I J K L M N O P Q R S T U V W X Y Z

Stone Sour - Your God tab

Song:Your God
Band:Stone Sour
Album:Come What (Ever) May
Tabber:Nathan Barrow

Intro
G#||---------------------------------||
C#||---------------------------------||
E ||---------------------------------||
B ||---------------------------------||
F#||-0h1p0-0-0-3p2-2-2p1-1-1p0-0-0---||
B ||-0h1p0-0-0-3p2-2-2p1-1-1p0-0-0---||

Verse pt 1
G#||-------------------------------||
C#||----------10-----------13--12--||
E ||-7-10-9-10---7-10-9-10---10----||
B ||-------------------------------||
F#||-------------------------------||
B ||-------------------------------||

Verse Pt 2
G#||------------------------------------------||
C#||----------10------------------8-----------||
E ||-7-10-7-10--10-7-10-7--10-7-10-10-7-10-7--||
B ||------------------------------------------||
F#||------------------------------------------||
B ||------------------------------------------||

Chorus
G#||-----------------------||
C#||-----------------------||
E ||-----------------------||
B ||-----------------------||
F#||-9-10-3-12-9/10-10/12--||
B ||-9-10-3-12-9/10-10/12--||

Verse pt 1
G#||-------------------------------||
C#||----------10-----------13--12--||
E ||-7-10-9-10---7-10-9-10---10----||
B ||-------------------------------||
F#||-------------------------------||
B ||-------------------------------||

Verse Pt 2
G#||------------------------------------------||
C#||----------10------------------8-----------||
E ||-7-10-7-10--10-7-10-7--10-7-10-10-7-10-7--||
B ||------------------------------------------||
F#||------------------------------------------||
B ||------------------------------------------||

Chorus
G#||-----------------------||
C#||-----------------------||
E ||-----------------------||
B ||-----------------------||
F#||-9-10-3-12-9/10-10/12--||
B ||-9-10-3-12-9/10-10/12--||

Bridge 1
G#||---------------------------------||
C#||---------------------------------||
E ||---------------------------------||
B ||---------------------------------||
F#||-0h1p0-0-0-3p2-2-2p1-1-1p0-0-0---||
B ||-0h1p0-0-0-3p2-2-2p1-1-1p0-0-0---||

G#||-----------------------------||
C#||-----------------------------||
E ||-----------------------------||
B ||-----------------------------||
F#||-10-10-1010-1010-5-5-55-3-2--||
B ||-10-10-1010-1010-5-5-55-3-2--||

G#||--------------------------------||
C#||--------------------------------||
E ||--------------------------------||
B ||--------------------------------||
F#||-0h1p0-0-0-3p2-2-2p1-1-1p0-0-0--||
B ||-0h1p0-0-0-3p2-2-2p1-1-1p0-0-0--||

Backing For Solos And Second Bridge
G#||---------------------------||
C#||---------------------------||
E ||---------------------------||
B ||---------------------------||
F#||-7-7-10-8-8-88--5-5-7-5-3--||
B ||-7-7-10-8-8-88--5-5-7-5-3--||

G#||---------------------------------||
C#||---------------------------------||
E ||---------------------------------||
B ||---------------------------------||
F#||-0h1p0-0-0-3p2-2-2p1-1-1p0-0-0---||
B ||-0h1p0-0-0-3p2-2-2p1-1-1p0-0-0---||

G#||-----------------------------||
C#||-----------------------------||
E ||-----------------------------||
B ||-----------------------------||
F#||-10-10-1010-1010-5-5-55-3-2--||
B ||-10-10-1010-1010-5-5-55-3-2--||

G#||---------------------------------||
C#||---------------------------------||
E ||---------------------------------||
B ||---------------------------------||
F#||-0h1p0-0-0-3p2-2-2p1-1-1p0-0-0---||
B ||-0h1p0-0-0-3p2-2-2p1-1-1p0-0-0---||Till End

Enjoy
Tap to rate this tab
# A B C D E F G H I J K L M N O P Q R S T U V W X Y Z