Guitaretab - guitar tabs
Song name
# A B C D E F G H I J K L M N O P Q R S T U V W X Y Z

Stone Temple Pilots - Trippin In A Hole In A Paper Heart tab

#----------------------------------PLEASE NOTE----------------------------------#
# This file is the author's own work and represents their interpretation of the #
# song. You may only use this file for private study, scholarship, or research. #
#-------------------------------------------------------------------------------#

Tabbed by:hate248
Email:blueshika48@yahoo.com

Tuning:EADGBe

i didnt put this,i found it when i looked on google and i thought ultimate guitar could 
it

========================================================================
                           STONE TEMPLE PILOTS
                  "Trippin' On A Hole In A Paper Heart"
========================================================================

Opening Chord: A5add#4 (X 0 2 2 4 5) (Guitars 1 & 2)

Verse:
Guitars 1 & 2 (Rythem Figure 1)
------------------------------------------------------------------------|
------------------------------------------------------------------------|
--3--3--3--3--------------------------------------3--3--3--3------------|
--4--4--4--4--------------------------------------4--4--4--4------------|
--4--4--4--4--X--X--X--X--X--X--X--X--X--X--X-----4--4--4--4--X--X--X---|
--2--2--2--2--X--X--X--X--X--X--X--X--X--X--X--0--2--2--2--2--X--X--X---|

------------------------------------------------------------------------|
-------------------------------0--0--0--0-------0--0--0--0-------0--0---|
-------------------------------4--4--4--4-------4--4--4--4-------4--4---|
-------------------------------2--2--2--2-------2--2--2--2-------2--2---|
--X--X--X--X--X--X--X--X--(0)--0--0--0--0----0--0--0--0--0----0--0--0---|
--X--X--X--X--X--X--X--X------------------------------------------------|

------------------------------------------------------------------------|
-------0--0--0--0-------0--0--0--0-------0--0---------------------------|
-------4--4--4--4-------4--4--4--4-------4--4---------3--3--3--3--------|
-------2--2--2--2-------2--2--2--2-------2--2---------4--4--4--4--------|
----X--0--0--0--0----0--0--0--0--0----0--0--0---------4--4--4--4--------|
-------------------------------------------------(0)--2--2--2--2--X--X--|

------------------------------------------------------------------------|
------------------------------------------------------------------------|
--------------------------------3--3--3--3------------------------------|
--------------------------------4--4--4--4------------------------------|
--------------------------------4--4--4--4------------------------------|
--X--X--X--X--X--X--X--X--X--X--2--2--2--2--X--X--X--X--X--X--X--X--X---|

------------------------------------------------------------------------|
-----------0--0--0--0-------0--0--0--0-------0--0-------0--0--0--0------|
-----------4--4--4--4-------4--4--4--4-------4--4-------4--4--4--4------|
-----------2--2--2--2-------2--2--2--2-------2--2-------2--2--2--2------|
-----------0--0--0--0----X--0--0--0--0----X--0--0----X--0--0--0--0------|
--X--X--X---------------------------------------------------------------|

------------------------------------------------0-----0--0--------------|
-----0--0--0--0-------0--0--0-------------------0--0--0--0----0--0--0---|
-----4--4--4--4-------4--4--4-----3--3--3--3----3--3--3--3----3--3--3---|
-----2--2--2--2-------2--2--2-----4--4--4--4----------------------------|
--0--0--0--0--0----0--0--0--0-----4--4--4--4----------------------------|
-------------------------------0--2--2--2--2----------------------------|

----------------------0-----0--0----------------------------------------|
----------------------0--0--0--0----0--0--0--------0----0--------0------|
--X--X--3--3--3--3----3--3--3--3----3--3--3--0--0--4----4--------4------|
--------4--4--4--4---------------------------------2----2--------2------|
--------4--4--4--4---------------------------------0----0--X--X--0----0-|
--------2--2--2--2------------------------------------------------------|

----------0--------0---------------------2---------2------------2-------|
--0-------0--------0--------------2------3----2----0------------2-------|
--4-------4--------4--------------0------2----0----0------------0-------|
--2-------4--------4--------------0------0----0----0------------0-------|
--0-------X--------X--------------X-------------------------------------|
-------4--4--------4------4--4----3-----------------------3--3----------|
                     (end Rythem Figure 1)
--2--2--2-------2-------------------------------------------------------|
--2--2--2-------0--0----------------------------------------------------|
--0--0--0-------0--0----------------------------------------------------|
--0--0--0-------0--0----------------------------------------------------|
--X--X--X-------X-------------------------------------------------------|
--3--3--3----3--3-------------------------------------------------------|

1st & 2nd Choruses:
Guitars 1 & 2 (Rythem Figure 2)
------------------------------------------------------2------2--2--2----|
--------3--3-----3-----3-------3----------------------2------3--2--0----|
--4--4--4--4--4--4--4--4----4--4--------4--0--2-------0------0--0--0----|
--4--4--4--4--4--4--4--4----4--4--X--X--4--0--2----0--0------0--0--0----|
--2--2--2--2--2--2--2--2----2--2--X--X--2-----0-------X---------X-------|
------------------------------------------------------3---------3-------|
                                   (end Rythem Figure 2)
-----2--2----2----2--2--------------------------------------------------|
-----0--2----3----2--2---------0----------------------------------------|
-----0--0----0----0--0------0--0----------------------------------------|
-----0--0----0----0--0------0--0--0-------------------------------------|
-------------X--------------X--X--X-------------------------------------|
--3----------3--------------3--3--3-------------------------------------|

1st Time After Chorus:
Guitars 1 & 2
----------------------------4--4--4--4--4--4--4--4--4--4--4--4--4-------|
-------3-------3-----3------4--4--4--4--4--4--4--4--4--4--4--4--4-------|
--4----4----4--4--4--4------2--2--2--2--2--2--2--2--2--2--2--2--2-------|
--4----4----4--4--4--4------2--2--2--2--2--2--2--2--2--2--2--2--2-------|
--2----2----2--2--2--2------0--0--0--0--0--0--0--0--0--0--0--0--0-------|
------------------------------------------------------------------------|
Guitars 1 & 2 go back and play Rythem Figure 1 & Rythem Figure 2

2nd Time After Chorus:
Guitars 1 & 2
       ^       ^  ^            ^
------------------------------------------------------------------------|
------------3--3------------3-----------------3--------3-------2--2-----|
--4----4----4--4--4----4----4--4--4--------4--4--------4-------2--2--0--|
--4----4----4--4--4----4----4--4--4--------4--4--X--X--4-------2--2--0--|
--2----2----2--2--2----2----2--2--2--------2--2--X--X--2----0--0--0-----|
------------------------------------------------------------------------|
                                    ^                        repeat once
--2--2--2----2----2--------------2--2--2--2----2--2-----2---------------|
--2--2--3----2----0--------------2--2--3--2----0--0-----0--0------------|
--0--0--0----0----0-----------0--0--0--0--0----0--0--0--0--0------------|
--0--0--0----0----0--------0--0--0--0--0--0----0--0--0--0--0------------|
--X--X-------X-------------X--X--X--X-----X----------X--X--X------------|
--3--3-------3-------------3--3--3--3-----3----------3--3--3------------|
                                                                   ^  ^
----------------------------4--4--4--4--4--4--4--4--4--4--4--4--4-------|
-------3--------3-----3-----4--4--4--4--4--4--4--4--4--4--4--4--4--X--X-|
--4----4--4--4--4--4--4-----2--2--2--2--2--2--2--2--2--2--2--2--2--X--X-|
--4----4--4--4--4--4--4-----2--2--2--2--2--2--2--2--2--2--2--2--2-------|
--2----2--2--2--2--2--2-----0--0--0--0--0--0--0--0--0--0--0--0--0-------|
-------------------------X----------------------------------------------|
^ Strummed by Guitar 2 only
[ Tab from: http://www.guitaretab.com/s/stone-temple-pilots/110871.html ]
Guitar Solo:
Guitar 1 (Guitar 2 plays Rythem Figure 1)
------------------------------------------------------------------------|
--14b----14b-------------------14b----14b----------------14----17--17---|
--14b----14b-------------------14b----14b----------------14----15--15b--|
----------------16--14--16p14----------------16--14--16-----------------|
------------------------------------------------------------------------|
------------------------------------------------------------------------|

----------------------------------------------14--14--18------14--17----|
--17--17-----17--17-----17--17-----17--17-----17----------17---------16-|
--15--15b----15--15b----15--15b----15--15b------------------------------|
------------------------------------------------------------------------|
------------------------------------------------------------------------|
------------------------------------------------------------------------|

--14--18--14--14--17--14--14--18------14--14--18------14--18--14--14----|
----------17----------16----------17--------------17----------16--------|
------------------------------------------------------------------------|
------------------------------------------------------------------------|
------------------------------------------------------------------------|
------------------------------------------------------------------------|

--18------14--18--14--14--14--14--14--14--14--14--14--14--14--14--17----|
------17----------16--17--17--17------16--17--17------17--17--17--16b---|
-------------------------------0-------0--------------------------------|
------------------------------------------------------------------------|
------------------------------------------------------------------------|
------------------------------------------------------------------------|

-----17------17---14--14--0-------14------14----14--14---14--17-----14--|
--0--16b--0--16b--14--14----------17--17--17----17-(17)------16b----14--|
--0-------0-------14--14-------0----------------------------------------|
------------------------------------------------------------------------|
------------------------------------------------------------------------|
------------------------------------------------------------------------|

--17--(14)--17---14--14-------14----------------------------------------|
--16b--14---16b--14--14--17b------17--14------14-----14--14-------------|
------------------------------------------16--16b--------16--16p14------|
------------------------------------------------------------------------|
--------------------------------------------------------------------0---|
------------------------------------------------------------------------|

------------------------------------------------------------------------|
------------------------------------------------------------------------|
--16--16-14h15------14----------------------------------------------0-0-|
----------------16--14----------------------------------------------0---|
------------------------16--15--14-----14-14b---(14)p12--14b------------|
------------------------------------0----------------------------0------|
Guitar 1
------------------------------------------------------------------------|
------------------------------------------------------------------------|
-------------------------------------------0----------------------------|
-------7-----7-----7-----7-----7--9/11-------------7-----7-----7--------|
--7h9-----9-----9-----9-----9-----------0-----7h9-----9-----9--X--9--9--|
---------------------------------------------------------------5--------|
Guitar 3
------------------------------------------------------------------------|
------------------------------------------------------------------------|
------------------------------------------------------------------------|
-------7-----9-----7-----7-----7--9/11~~~~~~-------7-----9-----7-----7--|
--7/9-----9-----9-----9-----9-----------------7h9-----9-----9-----9-----|
------------------------------------------------------------------------|
Guitar 1
------------------------------------------------------------------------|
-------------------------------------------------------------------12---|
----------9/11---(0)-------------------------6h9p6-----6-------14-------|
-----7-X---------(0)--------------------------------9-----/16-----------|
--9------------------------7--4h7p4--4--7/9-----------------------------|
----------------------3/5-----------------------------------------------|
Guitar 3
------------------------------------------------------------------------|
------------------------------------------------------------------------|
----------9/11~~~~~~----------------------------------------------------|
-----7------------------------------------------------------------------|
--9---------------------------------------------------------------------|
------------------------------------------------------------------------|
Guitar 1
------------------------------------------------------------------------|
------------------------------------------------------------------------|
--16b--(16)p14--16----16b------16--14--16--16b----(16)p14--16--14b------|
--------------------------------------------------------------------16--|
------------------------------------------------------------------------|
------------------------------------------------------------------------|
Guitar 3
------------------------------------------------------------------------|
----------------------------------------------------------------7/14b---|
------------------------------------------------------------------------|
------------------------------------------------------------------------|
------------------------------------------------------------------------|
------------------------------------------------------------------------|
Guitar 1
------------------------------------------------------------------------|
------------------------------------------------------------------------|
------------------------------------------------------------------------|
--16~~~~~~~~~~~~~~~-----------------------------------------------------|
------------------------------------------------------------------------|
------------------------------------------------------------------------|
Guitar 3
------------------------------------------------------------------------|
--(14)\12--(12)~~~~~~--12/14--(14)b----(14)\12~~~~~~~~~-----------------|
------------------------------------------------------------------------|
------------------------------------------------------------------------|
------------------------------------------------------------------------|
------------------------------------------------------------------------|

Guitars 1 & 2 play Rythem Figure 2 three times
Guitar 3
               w/bar
------------------------------------------------------------------------|
--/14--(14)b--12~~~~~~--\10/14--(14)b----12-----(12)\-------------------|
------------------------------------------------------------------------|
------------------------------------------------------------------------|
------------------------------------------------------------------------|
------------------------------------------------------------------------|
            w/bar                               w/bar           w/bar
------------------------------------------------------------------------|
--8/14b----12~~~~~~~--/14--(14)--14b-14b--12--(12)~~~(12)\----(0)~~~----|
------------------------------------------------------------------------|
------------------------------------------------------------------------|
------------------------------------------------------------------------|
------------------------------------------------------------------------|
                       w/bar                        w/bar
------------------------------------------------------------------------|
--/14--(14)b----(14)p12~~~~~~--/14--(14)b----(14)p12~~~~~~~~~-----------|
------------------------------------------------------------------------|
------------------------------------------------------------------------|
------------------------------------------------------------------------|
------------------------------------------------------------------------|
Guitar 3 out

Outro:
Guitars 1 & 2
----------------------------------4--4--4--4--4--4--4--4--4--4--4--4--4-|
-3--3--3--3--3--3--3--3--3--------4--4--4--4--4--4--4--4--4--4--4--4--4-|
-4--4--4--4--4--4--4--4--4--------2--2--2--2--2--2--2--2--2--2--2--2--2-|
-4--4--4--4--4--4--4--4--4--------2--2--2--2--2--2--2--2--2--2--2--2--2-|
-2--2--2--2--2--2--2--2--2--------0--0--0--0--0--0--0--0--0--0--0--0--0-|
----------------------------0--0----------------------------------------|
KEY
b = bend
p = pull-off
h = hammer-on
X = mute
~ = vibrate
/ = slide up
\ = slide down
Related for Trippin In A Hole In A Paper Heart tab
Advertisement will be closed in 10 seconds