Guitaretab - guitar tabs
Song name
# A B C D E F G H I J K L M N O P Q R S T U V W X Y Z

Stone Temple Pilots - Sex And Violence tab

Stone Temple Pilots - 'Sex and Violence'
From 'No. 4' Album
standard tuning
tabbed by jjhand

INTRO - Note that Bass plays the melody
Guitar 1
E|---------------------------------|
B|-3-----3-----3-----3-----3---3---|
G|-5b7---5b7---5b7---5b7---5b7-5b7-| play 4x
D|---------------------------------|
A|---------------------------------|
E|---------------------------------|
 |Guitar 2 (or tune high E to D on Guitar 1, and play 'F D F D F G') 
E|-----------------------------3---|
B|-6-----3-----6-----3-----6-------|
G|---------------------------------| play 4x
D|---------------------------------|
A|---------------------------------|
E|---------------------------------|

VERSE- The first three notes are in the intro's ending,
Repeat the part between double bars 4x

E|-------||-----------------|------------------|-----------------|
B|-------||-----------------|------------------|-----------------|
G|-------||-6---6-6-6-6-6-6-|-6-6-6-6-6--------|-----------------|
D|-------||-6---6-6-6-6-6-6-|-6-6-6-6-6--------|-5---5-5-5-5-5-5-|
A|-----5-||-4---4-4-4-4-4-4-|-4-4-4-4-4-3-4-5--|-5---5-5-5-5-5-5-|
E|-3-6---||-----------------|------------------|-3---3-3-3-3-3-3-|

ending 1-3                 ending on final repeat
E|------------------||     |-----------------|
B|------------------||     |-----------------|
G|------------------||     |-----------------|
D|-5-5-5-5-5--------||     |-5-5-5-5-5-5-5-5-|
A|-5-5-5-5-5-----5--||     |-5-5-5-5-5-5-5-5-|
E|-3-3-3-3-3-3-6----||     |-3-3-3-3-3-3-3-3-|
[ Tab from: http://www.guitaretab.com/s/stone-temple-pilots/179095.html ]
PRECHORUS - let guitar ring
   D   Dsus2                 Dsus4             Bb7
E|----------|----------|----------|----------|----------|---------|
B|-7-7-5----|----------|-7-5-8----|----------|-3-3-3----|---------|
G|-7-7-7----|----------|-7-7-7----|----------|-1-1-1----|---------|
D|-7-7-7----|----------|-7-7-7----|----------|-3-3-3----|---------|
A|-5-5-5----|----------|-5-5-5----|----------|-1-1-1----|---------|
E|----------|----------|----------|----------|----------|---------|
   Eb9                                         Dmaj7
E|----------|----------|----------|----------|----------|---------|
B|-6-6-6----|----------|-7-7-7----|----------|-7-7-7----|---------|
G|-6-6-6----|----------|-7-7-7----|----------|-6-6-6----|---------|
D|-5-5-5----|----------|-7-7-7----|----------|-7-7-7----|---------|
A|-6-6-6----|----------|-5-5-5----|----------|-5-5-5----|---------|
E|----------|----------|----------|----------|----------|---------|


CHORUS (Bass plays a faster rhythm, so listen for guitar notes)

E|-----------------------
B|-----------------------
G|-9---7---9---7---9----- X 4
D|-8---8---8---8---8-----
A|-8---8---8---8---8-----
E|-6---6---6---6---6-----

E|-------------------------|
B|-------------------------|
G|-13---11---13---11---13--| X 4
D|-12---12---12---12---12--|
A|-12---12---12---12---12--|
E|-10---10---10---10---10--|

Play Verse again

Play Chorus 1x, then repeat each line 2x

During last part of chorus, guitar 2 plays
E|-------------------------|
B|-------------------------|
G|-11b13r11b13r11b13r11b13-| continue bends until ending 
D|-------------------------|
A|-------------------------|
E|-------------------------|

ENDING

E|----------------------|
B|-7---7---7---7---7-7--|
G|-7---7---7---7---7-7--|  X 2
D|-7---7---7---7---7-7--|
A|-5---5---5---5---5-5--|
E|----------------------|
Related for Sex And Violence tab