Guitaretab - guitar tabs
Song name
# A B C D E F G H I J K L M N O P Q R S T U V W X Y Z

Stone Temple Pilots - Shangri-la Dee Da tab

 *Shangri-La Dee Da*  - by Stone Temple Pilots (2001)
-------------------------------------------------
 As tabbed out by Ultimate-Guitar members.


>1.DUMB LOVE
>2.DAYS OF THE WEEK
>3.COMA
>4.HOLLYWOOD BITCH
>5.WONDERFUL
>6.BLACK AGAIN
>7.HELLO IT'S LATE
>8.TOO COOL QUEENIE
>9.REGENERATION
>10.BI-POLAR BEAR
>11.TRANSMISSIONS FROM A LONELY ROOM(No tab)
>12.A SONG FOR SLEEPING
>13.LONG WAY HOME
...........................................

1.DUMB LOVE

Stone Temple Pilots - 'Dumb Love'
From 'Shangri-Laa De Da' Album
Tuning : DADGBE
tabbed by jjhand

Play this with heavy nasty distortion. Enjoy, but rate or comment please!

Intro                                         *this bar is repeated before solo
E|-------------------------------------------|---------------------------------------|
B|-------------------------------------------|---------------------------------------|
G|-------------------------------------------|---------------------------------------|
D|-------------------------------------------|---------------------------------------|
A|-10b12r10--8--6----8b10r8--6--4---5b6r5--3-|-5b6r5--3-0----5b6r5--3--0----5b6r5--3-|
D|-10b12r10--8--6----8b10r8--6--4---5b6r5--3-|-5b6r5--3-0----5b6r5--3--0----5b6r5--3-|

Verses - play 8x
E|---------------------------------|
B|---------------------------------|
G|---------------------------------|
D|---------------------------------|
A|-0-0---0-0---0-0---0---0---------|
D|-0-0---0-0---0-0---0---0-5b6-5b6-|

Chorus - play 2x                                     percussive strums
E|---------------------------------|-----------------x-x-x-x-x-x-x-|
B|---------------------------------|-----------------x-x-x-x-x-x-x-|
G|---------------------------------|-----------------x-x-x-x-x-x-x-|
D|---------------------------------|-----------------x-x-x-x-x-x-x-|
A|-3-5-5-3-5---3-5---3-5-3-5b6-5b6-|-3-5-5-3-5---3-5-x-x-x-x-x-x-x-|
D|-3-5-5-3-5---3-5---3-5-3-5b6-5b6-|-3-5-5-3-5---3-5-x-x-x-x-x-x-x-|

Play Verses 4x, and then Chorus again as before

Play Intro 2x
During the 'Synthesizer part', play the last bar of the Intro 4x

Solo
E|----------------------------------|----------------------------|
B|----------------------------------|-------------------13b15gr--|
G|----------------12b13r12---10--12-|-12b14-12-10-12p10----------|
D|-------12----12----------12--12---|----------------------------|
A|----------11----------------------|----------------------------|
D|-10/12----------------------------|----------------------------|

E|----------------------8______|-8________8-------------13b15-10~~|-(10~)-|
B|-10---------12--------11b12__|____11b12___11b12-10~\------------|-------|
G|-12b13--------12p10----------|----------------------------------|-------|
D|---------12--------12--------|----------------------------------|-------|
A|-----------------------------|----------------------------------|-------|
D|-----------------------------|----------------------------------|-------|
   final note of solo rings while Chorus begins to play again

Play Chorus
Play Intro 1x
Play last Intro bar with synthesizer part 8x

Lead during Synth part (2:28 into song)
E|---------------------------|---------------------------|
B|-----------------13b15-13--|---------------------------|
G|--14b17r14-12--------------|-12b14__r12-----12b14r12---|
D|---------------------------|------------12-------------|
A|---------------------------|---------------------------|
D|---------------------------|---------------------------|

E|---------------------------|--------------------------------|
B|-----------------13b15-13--|--------------------------------|
G|--14b17r14-12--------------|-12b14__r12-----12b14r12--12b14-|
D|---------------------------|------------12------------------|
A|---------------------------|--------------------------------|
D|---------------------------|--------------------------------|

End
E|---------------------------------|-------------------|
B|---------------------------------|-------------------|
G|---------------------------------|-------------------|
D|---------------------------------|-------------------|
A|-0-0---0-0---0-0---0---0---------|-0-0---0-0---0-0---|
D|-0-0---0-0---0-0---0---0-5b6-5b6-|-0-0---0-0---0-0---|

key:
h  - hammer-on
p  - pull-off
b  - bend
r  - release bent string
/  - slide up
\  - slide down
x  - muted strings
~  - vibrato
__ - hold note to next bar, or while playing another string

-----------------------------------------------------------

2.DAYS OF THE WEEK

Artist: Stone Temple Pilots
Song: Days of the Week
Album: Shangri-La-Dee-Da
Tabbed by: jjhand

Thanks to 'The Guit*rstud J.C.' on 911tabs

Verse riff (w/ chords):
   E    A
E|---------------|-------------------|---------------|----------------|
B|-5-------------|-5---5-------------|-0-2-3-2---0---|-0--2--3--2-0-0-|
G|-4----6-6------|-4---4---6-6---6---|-0-2-2-2---0---|-0--2--2--2-0-0-|
D|-6----7-7------|-6---6---7-7---7---|-0-2-4-2---0---|-0--2--4--2-0-0-|
A|------7-7------|---------7-7---7---|---------------|----------------|
E|------5-5------|---------5-5---5---|---------------|----------------|

The last two bars are double tracked
It sounds like a high pitched acoustic or auto harp.
You can play this part as:
e|--------------------|------------------------|
B|-12-14-15-14---12---|-12---14---15--14-12-12-|
G|-12-14-14-14---12---|-12---14---14--14-12-12-|
D|-12-14-16-14---12---|-12---14---16--14-12-12-|
A|--------------------|------------------------|
E|--------------------|------------------------|

Chorus:
   F#              Bm
E|-2---2---2-2---|-----------------|-2---2---2-2---|-----------------|
B|-2---2---2-2---|-3---3---3-3-3---|-2---2---2-2---|-3---3---33--3-3-|
G|-3---3---3-3---|-4---4---4-4-4---|-3---3---3-3---|-4---4---44--4-4-|
D|-4---4---4-4---|-4---4---4-4-4---|-4---4---4-4---|-4---4---44--4-4-|
A|-4---4---4-4---|-2---2---2-2-2---|-4---4---4-4---|-2---2---22--2-2-|
E|-2---2---2-2---|-----------------|-2---2---2-2---|-----------------|

Bass notes go up, but guitar plays this 2x:
   Gsus2  Asus2
E|------------------|-------------------|
B|------------------|-------------------|
G|-2-2-2--4-----2-2-|-2--4-----2-2-2-4--|
D|-0-0-0--0-----0-0-|-0--0-----0-0-0-0--|
A|------------------|-------------------|
E|-3-3-3--5-----3-3-|-3--5-----3-3-3-5--|

Play Verse Again
Play Chorus Again

Bridge- Acoustic Guitar, played 4x:
E|-------0-----------2---|
B|---2-3---3-2h3p2-------|
G|-4---------------4-----|
D|-----------------------|
A|-----------------------|
E|-----------------------|

Play Verse Again
Play Chorus Again to end song

Key
p   pull-off
h   hammer-on

------------------------------------------------------------

3.COMA

Stone Temple Pilots - 'Coma'
from the album 'Shangri La De Da'
Drop D Tuning
tabbed by jjhand

Intro is 16 beats of synth Sound effects, they continue in the guitar part rests


Verse Riff 1 - play 4x
E|---------------------------------|-------------------|
B|---------------------------------|-------------------|
G|---------------------------------|-----vocals/sounds-|
D|---------------------------------|-------------------|
A|-0--12-10-12-15-12-0---3-0-3--5--|-0-----------------|
D|-0--12-10-12-15-12-0---3-0-3--5--|-0-----------------|

Verse Riff 2 - Play 4x
E|---------------------------------|
B|---------------------------------|
G|---------------------------------|
D|---------------------------------|
A|-0--12-10-12-15-12-0---3-0-3--5--|
D|-0--12-10-12-15-12-0---3-0-3--5--|

Play 'Verse Riff 1' and 'Verse Riff 2' again

Chorus:
E|-------------------------------|--------------------------------|
B|-------------------------------|--------------------------------|
G|-------------------------------|--------------------------------|
D|-------------------------------|--------------------------------|
A|-8--8-8--8-8-8-8-8-8-8-8-6--5/-|-8--8-8--8-8-8-8-8-8-8-8-6--5/--|
D|-8--8-8--8-8-8-8-8-8-8-8-6--5/-|-8--8-8--8-8-8-8-8-8-8-8-6--5/--|

E|-------------------------------|--------------------------------|
B|-------------------------------|--------------------------------|
G|-------------------------------|--------------------------------|
D|-------------------------------|--------------------------------|
A|-7--7-7--7-7-7-7-7-7-7-7-6--3--|-0--0-0--0-0-0-0-0-0-0-0-3-5-0--|
D|-7--7-7--7-7-7-7-7-7-7-7-6--3--|-0--0-0--0-0-0-0-0-0-0-0-3-5-0--|

E|-------------------------------|--------------------------------|
B|-------------------------------|--------------------------------|
G|-------------------------------|--------------------------------|
D|-------------------------------|--------------------------------|
A|-8--8-8--8-8-8-8-8-8-8-8-6--5/-|-8--8-8--8-8-8-8-8-8-8-8-6--5/--|
D|-8--8-8--8-8-8-8-8-8-8-8-6--5/-|-8--8-8--8-8-8-8-8-8-8-8-6--5/--|

E|-------------------------------|------------------|
B|-------------------------------|------------------|
G|-------------------------------|------------------|
D|-------------------------------|-0----------------|
A|-7--7-7--7-7-7-7-7-7-7-7-6--3--|-0----------------|
D|-7--7-7--7-7-7-7-7-7-7-7-6--3--|-0----------------|

Chorus 1 ending - play then mute D5 chord in last bar
Chorus 2 ending - let D5 chord ring until Interlude takes over

Play Verse Riff 1 & 2
Play Chorus with appropriate ending

Interlude (different guitar w/ Clean tone)
  bar 1: play 4x                      bar2: play 1x
E|------2------2------2--------2-|    ----3---5--3---5--3---5--3---5-|
B|-0--0----1-0----1-0----1-0-0---|    -1----1------1------1------1---|
G|-------------------------------|    -------------------------------|
D|-------------------------------|    -------------------------------|
A|-------------------------------|    -------------------------------|
D|-------------------------------|    -------------------------------|

after first 5 bars, play bar 1 2x, bar 2, bar 1 2x, bar 2

Then for the finish:
E|-------------------------------|
B|-------------------------------|
G|-------------------------------|
D|-------------------------------|
A|-0-0---0-0---0-0---0-0---0-0---|
D|-0-0---0-0---0-0---0-0---0-0---|

Solo - Guitar 2 (with wah filter & good distortion harmonic feedback)
E|-----------------------|-----------------------|--------------------------------------|
B|-5gb6_____---5b6-5-----|-----------------------|-10----------13-----------------------|
G|-------------------7---|--0-------7-7-----10-12|-12b14r12gb14____14r12p10-12p10-12p10-|
D|-----------------------|-*4b-----------/12-----|--------------------------------------|
A|-----------------------|-----------------------|--------------------------------------|
D|-----------------------|-----------------------|--------------------------------------|
  semi Harmonic notes (slight PH) are shown by a *

E|---------------------------------------------|----------------------------------------|
B|---------------------------------------------|----------------------------13--13------|
G|---------------------------------------------|-------------------12/14-12---16--16p14-|
D|-12-------10---------------------------------|----------------------------------------|
A|-----10h12--12-10-12-10----------------------|----------------------------------------|
D|-----------------------12-15-15-12-15-15-12--|-15p12-12-15-15p12----------------------|

E|--------------------------------------------|----------------------------------|
B|-13---13------------15----------------------|----------------------------------|
G|----16--16p14-17b19___-17p15p14h15----------|----------------------------------|
D|-----------------------------------17-15\12-|-15--12-10------------------------|
A|--------------------------------------------|-----------12-11-10-10gb11r10--x--|
D|--------------------------------------------|----------------------------------|

E|-10----13-13-10-13-13-10-13-13-10-13-10----10----|-----------------|
B|-13b15----------------------------------13----13-|-13b15~~---------| last note is
G|-------------------------------------------------|-----------------| played as vocals
D|-------------------------------------------------|-----------------| start up again
A|-------------------------------------------------|-----------------|
D|-------------------------------------------------|-----------------|

during solo, Chorus is played by a second guitar.

Play Chorus again when vocals re-enter

Play Verse Riff 1 once to finish song

----------------------------------------------------------

4.HOLLYWOOD BITCH

Tabbed by Ryan Liddell

INTRO (can play as shown or with just the bottom string)

E|-------------------------------------|
B|-------------------------------------|
G|-------------------------------------| X 4
D|-7-8-9-5b~---5-7-8-9-5b~--5-7-7-5-5--|
A|-7-8-9-5b~---5-7-8-9-5b~--5-7-7-5-5--|
E|-5-6-7-3b~---0-5-6-7-3b~--0-5-5-3-0--|

VERSE

E|---------------------------------|
B|---------------------------------|
G|---------------------------------|
D|-7-7-6-5--5-6-7--7-6-5--5-5-5-5--|
A|-7-7-6-5--5-6-7--7-6-5--5-5-5-5--|
E|-5-5-4-3--3-4-5--5-4-3--3-0-3-0--|

RIFF (played during verses)

E|----------|
B|-8p5-8p5--|
G|----------|
D|----------|
A|----------|
E|----------|

PRECHORUS

E|-------------------------|              |----------------|
B|-------------------------|      After   |----------------|
G|-------------------------| X 4  the 4th |----------------|
D|-9-9-9--7-7-------0-0-0--|      time..  |-4-4-4-4-4-4-4--|
A|-9-9-9--7-7--2-2--2-2-2--|              |-4-4-4-4-4-4-4--|
E|-7-7-7--5-5--4-4--3-3-3--|              |-2-2-2-2-2-2-2--|

CHORUS (this or the regular chords can be played)

   B    E    B    E    B    E    G    G    A    A
E|---------------------------------------------------|
B|---------------------------------------------------|
G|--------9---------9---------9----------------------|
D|---9----9----9----9----9----9----5----5----7----7--|
A|---9--7------9--7------9--7------5----5----7----7--|
E|-7---------7---------7---------3----3----5----5----|

-----------------------------------------------------------

5.WONDERFUL

Transcribed by: Dan Caruthers
E-mail: New Yardbirds@aol.com
Website:www.angelfire.com/ct2/Radioshows/tabs.html

This is the intro. He plays different forms of C.
When I put an "h" before a number, it means hammer-on
to that number fret.

Play this twice. Intro:
e-0----0--0--0----0-0-0-0-0--------------------------|
b-1----1--1--1----1-1-1-1-1--------------------------|
g-0----0--0--0----0-0-0-0-0--------------------------|
d-2h3--2--0--0h2--2-2-2-2-2--------------------------|
a-3----3--3--3----3-3-3-3-3--------------------------|
e----------------------------------------------------|

This is right after the intro. Play it twice.
"If I were to die this morning..."
e--0------1-----1-----1--------------------------------|
b--1------3-----1-----3--------------------------------|
g--0------3-----2-----3--------------------------------|
d--2------3-----3-----3--------------------------------|
a--3------1-----3-----1--------------------------------|
e---------------1--------------------------------------|

After that, the heavier part comes in. Add some Distortion.
This is it.

e-1---4---3---0---4---3-------------------------------|
b-1---4---5---1---4---3-------------------------------|
g-2---5---5---2---5---4-------------------------------|
d-3---6---5---2---6---5-------------------------------|
a-3---6---3---0---6---5-------------------------------|
e-1---4-----------4---3-------------------------------|

After that part, play this line again twice.
e--0------1-----1-----1--------------------------------|
b--1------3-----1-----3--------------------------------|
g--0------3-----2-----3--------------------------------|
d--2------3-----3-----3--------------------------------|
a--3------1-----3-----1--------------------------------|
e---------------1--------------------------------------|

And after that, play this line again.
e-1---4---3---0---4---3-------------------------------|
b-1---4---5---1---4---3-------------------------------|
g-2---5---5---2---5---4-------------------------------|
d-3---6---5---2---6---5-------------------------------|
a-3---6---3---0---6---5-------------------------------|
e-1---4-----------4---3-------------------------------|


Now play this twice.
e--4---1---0---0---0---0----------------------------------|
b--4---3---1---1---1---1----------------------------------|
g--5---3---0---0---0---0----------------------------------|
d--6---3---2h3-2---0---2----------------------------------|
a--6---1---3---3---3---3----------------------------------|
e--4------------------------------------------------------|

When I put "b" after a number, it means bend that fret
to the number fret in parenthesis. If I put a double b
(bb)after a note, it means to bend to the note in parnthesis
and then bend back to it.
Solo:
e---------------------------------------------------|
b--------10-----13-10-11----------13-11-10----------|
g-10b(12)------------------12b(14)----------12------|
d---------------------------------------------------|
a---------------------------------------------------|
e---------------------------------------------------|

e---------------------------------------------------|
b---------------------------------------------------|
g--------------------9-12-9-------12-9--------------|
d-11bb(12)---11b(12)--------10-12-------------------|
a---------------------------------------------------|
e---------------------------------------------------|

e---------------------------------------------------|
b---------------------------------------------------|
g---------------------------------------------------|
d---------------------------------------------------|
a-10-12b(13)--10-12b(13)--10-12b(13)----------------|
e---------------------------------------------------|

e------------------------------------------12----------|
b------------------------------------10-13----13-11-13-|
g-12b(14)-9---------------------9-12-------------------|
d-------------10-10bb(12)----10------------------------|
a------------------------------------------------------|
e------------------------------------------------------|

e---------------------------------------------------|
b--------------11---11-11-11-11---------------------|
g------9-10-12------12-12-12-12---------------------|
d-10------------------------------------------------|
a---------------------------------------------------|
e---------------------------------------------------|


After the solo, just look back at the rest of the song. There is nothing new after the solo.

------------------------------------------------------------------

6.BLACK AGAIN

tabbed by jjhand
Standard tuning, 6/8 time

I love this songs heavy sound, and how the bass figures into the melody.
I don't know why the other tabs had a bad intro riff and verse riff, but
here's the accurate one.

Clean Intro (play 4x) - doubled by distorted guitar on 3rd and 4th times
e|------------------|------------------|
B|------------------|------------------|
G|----7--6-----4--5-|----------------4-|
D|------------------|----7--6-----4----|
A|-0--------3-------|------------------|
E|------------------|-0--------3-------|


Verse
   Cmaj7               Fmaj7
e|-0------0----0-0-0-|-0------0----0-0-0-|
B|-0------0----0-0-0-|-1------1----1-1-1-|
G|-0------0----0-0-0-|-2------2----2-2-2-|
D|-2------2----2-2-2-|-3------3----3-3-3-|
A|-3------3----3-3-3-|-3------3----3-3-3-|
E|-------------------|-------------------| play 3x

end verse with:
   Cmaj7               Dsus4
e|-0------0----0-0-0-|-0------0----0-0-0-|
B|-0------0----0-0-0-|-3------3----3-3-3-|
G|-0------0----0-0-0-|-0------0----0-0-0-|
D|-2------2----2-2-2-|-4------4----4-4-4-|
A|-3------3----3-3-3-|-5------5----5-5-5-|
E|-------------------|-------------------|


Chorus
e|-----------------|----------|
B|-7----5/7-5/7--8\|\5--------|
G|-----------------|----------|
D|-----------------|----------|
A|-----------------|----------|
E|-----------------|----------| play 3x

end chorus                      Uses 2 guitars, one has tremelo pedal
e|-5----3/5-3/5--7-|\3--------|-2------2--------|-1--------|
B|-7----5/7-5/7--8-|\5--------|-3---------3-----|-3--------|
G|-----------------|----------|-4------------4--|-3--------|
D|-----------------|----------|-4---------------|-3--------|
A|-----------------|----------|-2---------------|-1--------|
E|-----------------|----------|-----------------|----------|


Play Clean intro 2x (one repeat only)

Play Verse

Play Chorus

Play Clean intro 4x

* During 3rd and 4th times through intro, Guitar 2 plays:
  w/ Wah
e|-----------------|----------|
B|-pb7------5b7--8\|\5--------| pb - bend note before picking
G|-----------------|----------|
D|-----------------|----------|
A|-----------------|----------|
E|-----------------|----------| play 2x


Play Chorus again to end song

Key:
| / or \  slide up,down
| b       bend
| pb      prebend string

---------------------------------------------------------------

7.HELLO IT'S LATE

Tabbed by curtis jones

INTRO

Bass plays this:

G|-----------------------------|
D|-----------------------------|
A|-----------------------------|
E|--3--4--5---4----0--4--5---4-|

Guitar plays this: (listen to song for strumming pattern)

    E     Esus
E|--0--0--0---0----0--0--0---0-|
B|--0--0--0---0----0--0--0---0-|
G|--1--1--2---1----1--1--2---1-|
D|--2--2--2---2----2--2--2---2-|
A|--2--2--2---2----2--2--2---2-|
E|--0--0--0---0----0--0--0---0-|

VERSE (again, listen for the pattern)

   Em7         Em6         Em?         Em
E|-0--0--0--0--0--0--0--0--0--0--0--0--0--0--0--0-|
B|-3--3--3--3--2--2--2--2--1--1--1--1--0--0--0--0-|
G|-0--0--0--0--0--0--0--0--0--0--0--0--0--0--0--0-|
D|-2--2--2--2--2--2--2--2--2--2--2--2--2--2--2--2-|
A|-2--2--2--2--2--2--2--2--2--2--2--2--2--2--2--2-|
E|-0--0--0--0--0--0--0--0--0--0--0--0--0--0--0--0-|

PRECHORUS (Nothing matters again..)

   A            B
E|-5--5--5-5-5--7--7--7-7-7-|
B|-5--5--5-5-5--7--7--7-7-7-|
G|-6--6--6-6-6--8--8--8-8-8-|  X 2
D|-7--7--7-7-7--9--9--9-9-9-|
A|-7--7--7-7-7--9--9--9-9-9-|
E|-5--5--5-5-5--7--7--7-7-7-|

CHORUS (But Im just sittin...)

   C         D         C         D
E|-0---------0---------0---------0--|
B|-1---------3---------1---------3--|
G|-0---------2---------0---------2--|
D|-2---------0---------2---------0--|
A|-3-------------------3------------|
E|----------------------------------|

(Its just a game...)
   C          D           C          Bm         C          D
E|-----7----------10----------7----------5----------7----------10-|
B|---5---5------7----7------5---5------7---7------5---5------7----|
G|-5----------7-----------5----------7----------5----------7------|
D|----------------------------------------------------------------|
A|----------------------------------------------------------------|
E|----------------------------------------------------------------|
Go back to the intro to finish off the chorus
I left the solo out coz the tab messed up :S
awesome song tho

------------------------------------------------------------------

8.TOO COOL QUEENIE

Tabbed by jjhand

Enjoy and please rate my tabs so others will check them out too!

Main Riff  (Play 2x):
   D            C6     Bb/D       C6       Bb/D                F
E|-------------------|-------------------|------------------|----------------|
B|------10--------8--|-6------6-----8----|-6------6---------|----------------|
G|------11--------0--|--------------0----|------------------|----------------|
D|------12--------7--|-0------0-----7----|-0------0----8-8\-|-\3---3--3-3-3--|
A|------12--------7--|-5------5-----7----|-5------5----8-8\-|-\3---3--3-3-3--|
E|-/10----------8----|-6------6---8------|-6------6----6-6\-|-\1---1--1-1-1--|
for C6, best fingering is low to high ring(fret 8), index(7), middle(7), pinky(8).

For Verse, play Main Riff 2x

Chorus:
e|-----------------|-----------------|-----------------|------------------|
B|-----------------|-----------------|-----------------|------------------|
G|-----------------|-----------------|-----------------|------------------|
D|-2----2----------|-------------0-2-|-----------------|-6----6-----------|
A|-0----0----0-2-4-|-3----3----3-----|-1----1----1-3-5-|-4----4--6----6-6-|
E|-----------------|-3----3----------|-1----1----------|---------4----4-4-|
"She would always  party, it was no surprise, it was for her"
     crash the

First chorus ending (slower, w/ phaser)
e|-----------------|-----------------|
B|-6---------------|-6---------------|
G|-7---------------|-6---------------|
D|-8---------------|-8---------------|
A|-8---------------|-8---------------|
E|-6---------------|-6---------------|
                   "Too Cool Queenie"

Play Main riff 3x

Play Chorus
[ Tab from: http://www.guitaretab.com/s/stone-temple-pilots/181689.html ]
Bridge:                                         w/ modulation or wah?
e|----------------------|---------------------|---------------------------|
B|----------------------|---------------------|---------------------------|
G|----------------------|---------------------|---------------------------|
D|-x-x-8--x-x-----------|-6--6-x-x------------|---------------------------|
A|-x-x-6--x-x-8------8--|-4--4-x-x---6-----6--|---------------------------|
E|-x-x----x-x-6------6--|------x-x---4-----4--|-4-6--4-6--4-6--4-6--4-6-6-|


e|----------------------|----------------------|-----------------------|
B|----------------------|----------------------|-----------------------|
G|----------------------|----------------------|-----------------------|
D|-6---x-x--------------|-x-x-8--x-x-----------|-6-6---x-x-------------|
A|-4---x-x--6-----6-----|-x-x-6--x-x-8------8--|-4-4---x-x---6---6-6---|
E|----------4-----4-----|-x-x----x-x-6------6--|-------x-x---4---4-4---|
"It's ok cause what goes around comes around. It's all right cause what"

e|-1---------------|-1---------------|
B|-1---------------|-1---------------|
G|-2---------------|-2---------------|
D|-3---------------|-3---------------|
A|-3---------------|-3---------------|
E|-1---------------|-1---------------|
"goes around,      comes around."

Solo (Rhythm guitar plays main riff):
e|-------------------------------------|---------------------------------|
B|-------------------------------------|---------------------------------|
G|-12b14____r12p10--12b14r12-p10-12b14-|-10qb---------12b14r12-p10-12b14-|
D|-------------------------------------|------12~~-----------------------|
A|-------------------------------------|---------------------------------|
E|-------------------------------------|---------------------------------|

e|------------------------------|------------------------------------------|
B|------------------------------|------------------------------------------|
G|-10qb-------------------------|--------------------------------------10--|
D|-------12~~----10h12-10-------|------------------------------------10----|
A|------------------------10h12-|------------------10-12p10--12p10h12------|
E|------------------------------|-13~~--------10h13--------13--------------|

e|--------------------------------------|------------------12-12h13h12---|
B|--------------------------------------|-13b15~~------/15------------15-|
G|-12b14____r12p10---12b14r12-p10-12p10-|--------------------------------|
D|--------------------------------------|--------------------------------|
A|--------------------------------------|--------------------------------|
E|--------------------------------------|--------------------------------|

e|-12~-----------------------|-----13----------13-----13-------|
B|---------------13b15b13----|-----16b18~-16b18--16b18--16b18--|
G|------------------------15-|-14------------------------------|
D|---------------------------|---------------------------------|
A|---------------------------|---------------------------------|
E|---------------------------|---------------------------------|

Play Main Riff again to end song

-----------------------------------------------------------------

9.REGENERATION

tabbed by jjhand
standard tuning, 2 guitars (most parts are doubled)
Tone: Les Paul/Humbucker guitar w/ mild distortion

I took a couple ideas from the other version and corrected the bad riffs.
I think this song has got a unique cool sound. Please rate my work as well.

Repeated Intro: (fades in)

e|---------------|
B|--8\6-8-10-8---|
G|---------------|
D|---------------|
A|---------------|
E|---------------|

Verse Riff:
                                      Ending 1           Ending 2
e|--3-----3-3-----3-3-3-3-----3-3-3-|------------|     -------0---0-|
b|--2-----0-2-----0-2-0-2-----0-2-0-|--3---------|     --3----3---3-|
G|--0-----0-0-----0-0-0-0-----0-0-0-|--3---------|     --3----3---3-|
D|--0-----0-0-----0-0-0-0-----0-0-0-|--3---------|     --3----------|
A|----------------------------------|------------|     -------------|
E|----------------------------------|------------|     -------------|

 replay riff with ending 1 and ending 2

finish up with:
                                      Ending 1           Ending 2
e|--3-----3-3-----3-3-3-3-----3-3-3-|------0-----|     ------------0-0-0-|
b|--2-----0-2-----0-2-0-2-----0-2-0-|--3-3---3---|     -3--3--3----3-3-3-|
G|--0-----0-0-----0-0-0-0-----0-0-0-|--3-------3-|     -3--3--3----3-3-3-|
D|--0-----0-0-----0-0-0-0-----0-0-0-|--3---------|     -3--3--3----------|
A|----------------------------------|------------|     ------------------|
E|----------------------------------|------------|     ------------------|

Chorus:

  play 4x
e|-------------------|---------------------|------------------|------------|
B|-------------------|---------------------|------------------|------------|
G|-0-0-0-0---0-0-0-0-|---0-0-0-0---0-0-0-0-|---------------0--|-(0)--------|
D|-3-3-3-3-3/5-5-5-5-|-5/7-7-7-7-7/9-9-9-9-|--11-12-11-----11-|-(11)-------|
A|-------------------|---------------------|------------------|------------|
E|-1-1-1-1-1/3-3-3-3-|-3/5-5-5-5-5/7-7-7-7-|--9--10-9------9--|-(9)--------|

Chorus Ending
e|---------------------------------|-----------------|
B|---------------------------------|-----------------|
G|-4-4-4-4-----4-4-4-4-----4-4-----|-4-4-4-4-----4-4-|
D|-3-3-3-3-----3-3-3-3-----3-3-----|-3-3-3-3-----3-3-|
A|---------------------------------|-----------------|
E|-1-1-1-1-----1-1-1-1-----1-1-----|-1-1-1-1-----1-1-|


Play Verse & Chorus again

Interlude - Rest for 2 bars (16 beats), then come in:
e|---------------------------------|---------------------------------|
B|---------------------------------|---------------------------------|
G|---------------------------------|---------------------------------|
D|-3-3-3-3-----3-3-3-3-----3-3-----|-3-3-3-3-----3-3-3-3-----3-3-----|
A|---------------------------------|---------------------------------|
E|-1-1-1-1-----1-1-1-1-----1-1-----|-1-1-1-1-----1-1-1-1-----1-1-----|

e|---------------------------------|---------------------------------|
B|---------------------------------|---------------------------------|
G|-4-4-4-4-----4-4-4-4-----4-4-----|-4-4-4-4-----4-4-4-4-----4-4-----|
D|-3-3-3-3-----3-3-3-3-----3-3-----|-3-3-3-3-----3-3-3-3-----3-3-----|
A|---------------------------------|---------------------------------|
E|-1-1-1-1-----1-1-1-1-----1-1-----|-1-1-1-1-----1-1-1-1-----1-1-----|

Short Solo                                                      * Gtr 2 comes in
E|-------------4--4/6--|-----------------6---|-8b10r8--6------|-8b10r8--6------|
B|---------------------|-6b8r6--5--6--8------|----------------|----------------|
G|-7b8r7---5-----------|---------------------|----------------|----------------|
D|---------------------|---------------------|----------------|----------------|
A|---------------------|---------------------|----------------|----------------|
E|---------------------|---------------------|----------------|----------------|

Guitar 2 at end of solo
e|--------------------------------------------------|
B|-8p7p5-7p5---5------------------------------------|
G|-----------7---7p5-7p5\4-5p4---5------------------|
D|-----------------------------7---7p5-7p5\3-5p3p2--|
A|--------------------------------------------------|
E|--------------------------------------------------|

Play Verse Riff when solo ends

Play Chorus to end song
------------------------------------------------------------------

10.BI-POLAR BEAR

Tabbed by jjhand

Tuning (Electrics, Acoustic 1): DADGBE,  Acoustic 2 & 3 Tuning: DADGBD

Intro/Verse Riff - Guitar 1:
E|-----------------|-------------------|---------------------|---------------------|
B|-------0---0--0--|--0---0-0-0-0-0----|---------------------|---------------------|
G|-------0---0--0--|--0---0-0-0-0-0----|--3-3-3--------------|--6---6--6--x--6-----|
D|-------4h5-5--4--|--4---4-5-4-5-4-x--|--3-3-3-3---3--3-3---|---------------------|
A|-------5---5--5--|--5---5-5-5-5-5-x--|--0-1-0-3---3--3-3-x-|--4---4--4--x--4-----|
D|---5-5-5---5--5--|--5---5-5-5-5-5-x--|--------3---2--3-2-x-|-(0)-(0)(0)---(0)----|

Verse plays Riff 2x with Guitar 2 (w/ tremelo) coming in on bar 4

D|----|----|----|--10---|--9---9-9-9-9--|--9-----9-9-9--|--8---------|--12------|
B|----|----|----|--10---|--8---8-8-8-8--|--8-----8-8-8--|------------|--10------|
G|----|----|----|--7----|--7---7-7-7-7--|--7-----7-7-7--|--6---------|--11------|
D|----|----|----|--0----|---------------|---------------|--8---------|----------|
A|----|----|----|-------|---------------|---------------|------------|----------|
D|----|----|----|-------|---------------|---------------|------------|----------|

On last bar Guitar 1 plays Prechorus:
E|--------------------------|------------------------------------|
B|--------------------------|------------------------------------|
G|--7---7---7-7/9---9-9/11--|--11-11/13---13-13---13---13-13-----|
D|--------------------------|------------------------------------|
A|--5---5---5-5/7---7-7/9---|--9---9/11---11-11---11---11-11-----|
D|--0---0---0-0-----0-0-----|--0---0------0--0----0----0--0------|

Chorus (w/ distortion, let notes ring)
E|--------------------------|------------------------|------------|-------------|
B|--------------------------|------------------------|---7---5----|---7---5----o|
G|--9---9/11--11\5--5-5--5--|9---9/11--11\5--5-5--5--|-----5---5--|-----5---5---|
D|--0---0-----0--0--0-0--0--|0---0-----0--0--0-0--0--|-0----------|-0-----------|
A|--7---7/9---9-\3--3-3--3--|7---7/9---9-\3--3-3--3--|------------|------------o|
D|--------------------------|------------------------|------------|-------------|

3rd and 4th bars, Guitar 2 plays (w/ distortion)
E|----------------------------|
B|----------------------------|
G|----------------------------|
D|--0----4b5--0-0--10b11-0-0--|
A|--0----4b5--0-0--10b11-0-0--|
D|--0----4b5--0-0--10b11-0-0--|

End of Chorus-
Guitar 1                        Guitar 2
E|-----------------|		E|-------------------|
B|--5---5--5-5--5--|		B|-------------------|
G|--5---5--5-5--5--|		G|-------------------|
D|--0---0--0-0--0--|		D|-------------------|
A|-----------------|		A|----------0-5-3~---|
D|-----------------|		D|--0--4--5----------|

Verse 2 and Chorus 2 are similar

Guitar 2 Solo (Guitar 1 plays Verse)
w/ wah filter
E|-----------------------|--------------------|-------------------------|
B|--10b12~--10-8-7-8b10--|--------------------|-------------------------|
G|-----------------------|--7-9-9b11-9---7-9--|--9b10r9-7-9-5--7-5------|
D|-----------------------|--------------------|--------------------7----|
A|-----------------------|--------------------|-------------------------|
D|-----------------------|--------------------|-------------------------|

E|---------------------------|-------------------------------------|
B|---------------------------|----------10~----10---10--10/12\10---|
G|---------------------------|-------7-------7----7------7/-9\7----|
D|------------4-5-7-4-5-7/9--|-5-7-9-------------------------------|
A|--7/9~--5-7----------------|-------------------------------------|
D|---------------------------|-------------------------------------|

E|----------------------|---------------------|--------------------------|
B|---------------15-17--|--17b18r17-15-17--13-|-15-13----13b15~---15-13--|
G|-----------/14--------|---------------------|-------14-----------------|
D|--7-5-4~--------------|---------------------|--------------------------|
A|----------------------|---------------------|--------------------------|
D|----------------------|---------------------|--------------------------|

E|--------------------------|--------------------------------------10-13b15r13-10--------|
B|--------------------------|-10b13r10---10b13r10-10b13r10---10-13----------------13b15--|
G|--14-13---14-12-10-12-----|------------------------------------------------------------|
D|-------15-------------12--|------------------------------------------------------------|
A|--------------------------|------------------------------------------------------------|
D|--------------------------|------------------------------------------------------------|

Play Chorus for 3rd time

Ending: Guitar 3 (Acoustic)
D|--0-----0-----0---|--------|
B|----2-----2-----2-|-------o|
G|------2-----2-----|-0------|	repeats several times
D|------------------|--------|
A|------------------|-------o|
D|------------------|--------|

Guitar 2 - repeated strum rhythm
D|--0---0-0--0-0--0----|--0---0--0--0-0-0--|
B|--3---3-3--3-3--3----|--3---3--3--3-3-3--|
G|--2---2-2--2-2--2----|--2---2--2--2-2-2--|
D|--0---0-0--0-0--0----|--0---0--0--0-0-0--|
A|--0---0-0--0-0--0----|--0---0--0--0-0-0--|
D|---------------------|-------------------|

Guitar 1,  w/ slide (slight ad lib each repeat)
E|----------------------|---------------------------|--------------------|------------|
B|----------------------|---------------------------|--------------------|-----------o|
G|--14\11---------------|---------------------------|--------------------|------------|repeat
D|----------14/16\14----|--(14)--12/14-12-----------|--12----12-14-14/16-|(16)\14-----|
A|----------------------|-----------------14-14\12--|-----12-------------|-----------o|
D|----------------------|---------------------------|--------------------|------------|

---------------------------------------------------------------

11.TRANSMISSIONS FROM A LONELY ROOM- No guitar just bass tabs

---------------------------------------------------------------

12.A SONG FOR SLEEPING

Standard Tuning - Acoustic & Lead Slide Guitar for solo
tabbed by jjhand

Intro - play 2x, let notes ring

E|-2----2----------2----------------|
A|-2----2------2h4-----2------------|
D|-3----3------------3-----3--------|
G|-4----4----4-----------4-------4--|
B|-4----4--------------------4h6----|
E|-2----2---------------------------|

For Verse, play Riff 1 4x,
                Lick 1 2x,
                Riff 1 2x,
                Lick 1 2x,
                Riff 1 2x

Riff 1:
e|------------------------2-2-2--|
B|------------------------2-2-2--|
G|-3----3----3--3-3--3----3-3-3--|
D|-4----4----4--4-4--4-----------|
A|-4----4----4--4-4--4-----------|
E|-2----2----2--2-2--2-----------|

Lick 1:
E|-----11------------9----------------|
A|---9----9---9----9---9----9----9----|
D|-9--------9---11-------11---11------|
G|------------------------------------|
B|------------------------------------|
E|------------------------------------|

Prechorus:
E|------2-------2---|-----2-------2---|
A|----3-------3-----|---3-------3-----|
D|--2-------2-------|-1-------1-------|
G|------------------|-----------------|
B|------------------|-----------------|
E|------------------|-----------------|

E|------2-------2---|-----2-------2---|---------------------|
A|----3-------3-----|---3-------3-----|---------------------|
D|--2-------2-------|-1-------1-------|---------------------|
G|------------------|---------------4-|-5----5---5---7--7-7-|
B|------------------|---------------4-|-5----5---5---7--7-7-|
E|------------------|---------------2-|-3----3---3---5--5-5-|


Chorus
e|-0----0---0-0-0---0-0-|-0----0---0-0-0---0-0-|
B|-4----4---4-4-4---4-4-|-4----4---4-4-4---4-4-|
G|-4----4---4-4-4---4-4-|-4----4---4-4-4---4-4-|
D|-4----4---4-4-4---4-4-|-4----4---4-4-4---4-4-|
A|-2----2---2-2-2---2-2-|-0----0---0-0-0---0-0-|
E|----------------------|----------------------|

e|-0----0---0-0-0---0-0-|-0----0---0-0-0---0-0----|
B|-4----4---4-4-4---4-4-|-4----4---4-4-4---4-4----|
G|-4----4---4-4-4---4-4-|-4----4---4-4-4---4-4----|
D|-2----2---2-2-2---2-2-|-4----4---4-4-4---4-4----|
A|----------------------|-2----2---2-2-2---2-2----|
E|----------------------|-------------------------|

Play Verse and Chorus again

Solo (Guitar 2 w/ slide)
e|--------------|---------------|---------------|--------2-|
B|----7---------|---------------|---2---------2-|----------|
G|----------/10-|-/10--\-3--3-1-|-/3----3-1/3---|-1/3------|
D|--------------|---------------|---------------|----------|
A|--------------|---------------|---------------|----------|
E|--------------|---------------|---------------|----------|

e|-/4---2--4/5-|--7\5-----7-|-/9---7----------7-|-/9---7--------|
B|-------------|------------|--------10~---10---|--------10~--9-|
G|-------------|------------|-------------------|---------------|
D|-------------|------------|-------------------|---------------|
A|-------------|------------|-------------------|---------------|
E|-------------|------------|-------------------|---------------|

e|---------------|-----------------| <- Guitar 1 starts playing
B|-7-------9\7---|-7/9---7---------|    Chorus again in last bar
G|-------------8-|-----------------|    of solo, so these overlap.
D|---------------|-----------------|
A|---------------|-----------------|
E|---------------|-----------------|

-------------------------------------------------------------

13.LONG WAY HOME

Standard tuning
Tabbed by jjhand

Enjoy and please rate my tabs so others will check them out too!

Intro/Carry-over Chords (2 beats):
e|-----------------|
B|-----------------|
G|---------3-------|
D|-2-------3-------|
A|-2-------1-------|
E|-0---------------|

Verse: play 2x
e|-1---------1--1----1---------|-1--1------------------|
B|-0---------0--0----0---------|-0--0------------------|
G|-0---------0--0----0---------|-0--0------------------|
D|-0----x-x--0--0----0----x-x--|-0--0--x-x-------------|
A|-2----x-x--2--2----2----x-x--|-2--2--x-x-------------|
E|-3----x-x--3--3----3----x-x--|-3--3--x-x--2b3r2b3~~--|

e|-2---------2--2----2---------|-2--2-----2-2--2-------|
B|-2---------2--2----2---------|-2--2-----2-2--2-------|
G|-3---------3--3----3---------|-3--3-----3-3--3-------|
D|-4----x-x--4--4----4----x-x--|-4--4--x--4-4--4______-|
A|-4----x-x--4--4----4----x-x--|-4--4--x--4-4--4______-|
E|-2----x-x--2--2----2----x-x--|-2--2--x--2-2--2______-|

Repeat Intro and Verse

Chorus
e|---------------------|---------------------------|
B|---------------------|------6--6-----------------|
G|-----7--7-----7--7-7-|------7--7-------------9---|
D|-----7--7-----7--7-7-|-8----8--8----10---10--10--|
A|-0---0--0--9---------|-8----8--8----10---10--10--|
E|-----------7---------|-6----6--6----8----8---8---|

  w/ chorus
e|--------------2-0---|---1-0----------------|
B|------------------3-|-------3--------------|
G|---6b7-6~~----------|---------------0---0--|
D|--------------------|----------------------|
A|-0----------2-------|-1-------2b3r2b3r2b3--|
E|--------------------|----------------------|

let all ring:
e|---------------------------|-----------------------|
B|-----2-----3----5---7---9--|-----10-----12-----14--|
G|-0-----0------0---0---0----|---0------0------0-----|
D|-2-----2/4---/6--/7--/9----|-/11----/13----/14-----|
A|---------------------------|-----------------------|
E|---------------------------|-----------------------|

Play intro as before, then play verse 2x

In second time through verse, Guitar 2 starts playing
this before chorus 2:
e|-----------3-----------3-|-----------3-----------3-|
B|-6-3-----6---6-3-----6---|-6-3-----6---6-3-----6---|
G|-----4-----------4-------|-----4-----------4-------|
D|-------------------------|-------------------------|
A|-------------------------|-------------------------|
E|-------------------------|-------------------------|

e|-----------2-----------2-|-----------2-------------|
B|-5-2-----5---5-2-----5---|-5-2-----5---5-2---------|
G|-----3-----------3-------|-----3-----------3-------|
D|-------------------------|-------------------------|
A|-------------------------|-------------------------|
E|-------------------------|-------------------------|

Chorus 2: Play Chorus riff again, but play each line twice this time,
except the last line (ascending arpeggio riff).

Interlude       play these bars 3x
e|-----------||---------------------------|---------------------------|
B|-----------||-6----6--6-6--6------------|-5----5---5-5--------------|
G|-----------||-7----7--7-7--7------------|-7----7---7-6--------------|
D|-----------||-6----6--6-6--6--11-10-9-8-|-7----7---7-7--------------|
A|-----------||-8----8--8-8--8--11-10-9-8-|-7----7---7-7--------------|
E|-1-2-3-4-5-||-6----6--6-6--6------------|-5----5---5-5----1-2-3-4-5-|

Interlude Ending (then go right into solo)
e|---------------------------|------------------------|----------------|
B|-6----6--6-6--6------------|-5----------------------|------------5---|
G|-7----7--7-7--7------------|-7------7----8-----10p8-|---7----7-----7-|
D|-6----6--6-6--6--11-10-9-8-|-7----------------------|----------------|
A|-8----8--8-8--8--11-10-9-8-|-7----7----9-----9------|-7----7----7----|
E|-6----6--6-6--6------------|-5----------------------|----------------|


Solo (with Guitar 1 playing Verse Riff repeatedly)
e|-------------|--------------|------------------------------|
B|-------------|----------8---|----------------12-----12-----|
G|-----9-------|-------7------|-14b16r14---------12-----12---|
D|---8---8---8-|-9~-----------|--------------------12-----12-|
A|-7-------7---|--------------|------------------------------|
E|-------------|--------------|------------------------------|

e|-----------------------------|--------------------------------------------|
B|--11-------14-17b19---17--15-|-14-----------------------------------------|
G|---------15------------------|-16b18_____r16-14------------14-------------|
D|11----/16--------------------|-----------------16------14----16~----------|
A|-----------------------------|--------------------14h16--16------16-14-12-|
E|-----------------------------|--------------------------------------------|

e|-------------------------------------------|
B|-------------------------------------15b17-|
G|-------------14b16-14~---------------------|
D|-------------------------------------------|
A|-12b14-12~---------------12b14-12~---------|
E|-------------------------------------------|

e|-----------------------------------------------|
B|-15p14p12-14~-------15p14p12-14-12-14-12-14-12-|
G|-----------------------------------------------|
D|-----------------------------------------------|
A|-----------------------------------------------|
E|-----------------------------------------------|

e|-------------14------------------------------------------|
B|-------17------------------------------------------------|
G|-15b16____b16____16r15---------------14------------------|
D|---------------------16~-------14h16---16p14-------------|
A|--------------------------14h16-------------16p14\12~----|
E|---------------------------------------------------------|

e|---------------------------------------------|
B|---------------------------------------------|
G|---------------------------------------------|
D|---------------------------------------------|
A|-14p12-14-14b15~~~---14b15r14-12----12----12-|
E|---------------------------------14----14----|

e|-15-----------15----15-------------------------|
B|-18b20---18---18b20-18b20r18-15-15-------------|
G|--------------------------------17b19r17-p15---|
D|--------------------------------------------17-|
A|-----------------------------------------------|
E|-----------------------------------------------|

e|----------18----15--------------------------------------|
B|-----------------------18-------------------------------|
G|-17b19______b19____b19----17b19r17-15----15----15-17b19-|
D|--------------------------------------17----17----------|
A|--------------------------------------------------------|
E|--------------------------------------------------------|

e|----------------------------------------|
B|----------12----11~------17----14~~~~---|
G|-14~~-----------------------------------|
D|-------/12---\11~-----/17---\14~~~~-----|
A|----------------------------------------|
E|----------------------------------------|

e|------12------10~--------12------10~--------12------10-|
B|-12/14---14\12--~---12/14---14\12--~---12/14---14\12---|
G|-------------------------------------------------------|
D|-------------------------------------------------------|
A|-------------------------------------------------------|
E|-------------------------------------------------------|

e|------12------10~----------------------------------|
B|-12/14---12\10--~-12b14r12-10-12-12b14r12-10-12-10-|
G|---------------------------------------------------|
D|---------------------------------------------------|
A|---------------------------------------------------|
E|---------------------------------------------------|

e|-------12b14--12-9-------------------------------------------|----|
B|-10/11-------------9-------9---------------------------------|----|
G|---------------------11b13---11-9----9-----------------------|----|
D|----------------------------------11---11-9----10-9-7-7--9-7-|----|
A|--------------------------------------------11-------9-9-----|-9~-|
E|-------------------------------------------------------------|----|

fade out
--------------------------------------------------------------
Thanks to the tabbers above whom contributed.
Related for Shangri-la Dee Da tab