Guitaretab - guitar tabs
Song name
# A B C D E F G H I J K L M N O P Q R S T U V W X Y Z

Stone Temple Pilots - Where The River Goes tab

Where the River Goes
Stone Temple Pilots
Core
Standard Tuning
Tabbed by: chronic_stp

This is my first STP tab I have learned by ear. They are my favorite band and most of 
songs have already been tabbed. Most of them have been tabbed by jjhand, and he did a 
good job with them. This tab is probably not anywhere near correct but this is how I play it.

Like most songs on the "Core" album, Dean uses a lot of natural harmonics.
He uses them at the end of each bar on the chorus, I just can't figure them
out.

KEY
h=Hammer-on
p=Pull-off
b-Bend
r=Release
~=Vibrato
.=Palm-mute
/=Slide down
\=Slide up
()=Hold note

Opening Riff (HEAVY distortion)
e|-----------|
B|-----------|
G|-----------|
D|-----------|
A|-7-9-7-5-4-|
E|-5-7-5-3-2-|
   . . . . .

Opening Solo (with wah)
e|---------------------------------------------------------------------------|
B|-15b17-15b17r15-13------------------------------------------------15b17~~~-|
G|-------------------15b17r15b17-14-14/18-14------------12-14-12-14----------|
D|-------------------------------------------16b18--/14----------------------|
A|---------------------------------------------------------------------------|
E|---------------------------------------------------------------------------|

          |     Repeat 3 times      |
e|--------|-------------------------|
B|--------|----7-----7-----7--------|
G|--------|----7-----7-----7--------|
D|-7---8--|----7-----7-----7--------|
A|-7---8--|----5-----5-----5-------4|
E|-5---6--|3-0---3-0---3-0---3-5-3--|

(Repeat 4 times)
e|---------------------------|
B|---------------------------|
G|---------------------------|
D|---------------------------|
A|-5/7-7-7-7\5-5-5-5-5/7\5/7-|
E|-3/5-5-5-5\3-3-3-3-3/5\3/5-|
       . .     .   .

e|--------------------------------|
B|----7-----7-----7---------------|
G|----7-----7-----7---------------|
D|----7-----7-----7----------7--8-|
A|----5-----5-----5-------4--7--8-|
E|3-0---3-0---3-0---3-5-3----5--6-|

(Repeat 4 times)
e|--------------------------|
B|----7-----7-----7---------|
G|----7-----7-----7---------|
D|----7-----7-----7---------|
A|----5-----5-----5-------4-|
E|-3-0---3-0---3-0---3-5-3--|

(Repeat 4 times)
e|---------------------------|
B|---------------------------|
G|---------------------------|
D|---------------------------|
A|-5/7-7-7-7\5-5-5-5-5/7\5/7-|
E|-3/5-5-5-5\3-3-3-3-3/5\3/5-|
       . .     .   .

e|--------------------------------|
B|----7-----7-----7---------------|
G|----7-----7-----7---------------|
D|----7-----7-----7----------7--8-|
A|----5-----5-----5-------4--7--8-|
E|3-0---3-0---3-0---3-5-3----5--6-|

(Repeat)
e|--------------------------------------------------------------|
B|--------------------------------------------------------------|
G|5/7-----5/7-----5/7-----7\5-5-5/7-----5/7-----5/7-----9-7\5-4-|
D|5/7-7-7-5/7-7-7-5/7-7-7-7\5-5-5/7-7-7-5/7-7-7-5/7-7-7-9-7\5-4-|
A|--------------------------------------------------------------|
E|--------------------------------------------------------------|
      . .     . .     . .           . .     . .     . .

e|-------7~------------------------------|
B|-------7~------7-----7-----7-----------|
G|-------8~------7-----7-----7-----------|
D|-7--8--9~------7-----7-----7-----------|
A|-7--8--9~------5-----5-----5-------4---|
E|-5--6--7~--3-0---3-0---3-0---3-5-3---0-|
[ Tab from: http://www.guitaretab.com/s/stone-temple-pilots/184751.html ]
(Repeat 4 times)
e|--------------------------|
B|----7-----7-----7---------|
G|----7-----7-----7---------|
D|----7-----7-----7---------|
A|----5-----5-----5-------4-|
E|-3-0---3-0---3-0---3-5-3--|

(Repeat 4 times)
e|---------------------------|
B|---------------------------|
G|---------------------------|
D|---------------------------|
A|-5/7-7-7-7\5-5-5-5-5/7\5/7-|
E|-3/5-5-5-5\3-3-3-3-3/5\3/5-|
       . .     .   .

e|--------------------------------|
B|----7-----7-----7---------------|
G|----7-----7-----7---------------|
D|----7-----7-----7----------7--8-|
A|----5-----5-----5-------4--7--8-|
E|3-0---3-0---3-0---3-5-3----5--6-|

(Repeat)
e|--------------------------------------------------------------|
B|--------------------------------------------------------------|
G|5/7-----5/7-----5/7-----7\5-5-5/7-----5/7-----5/7-----9-7\5-4-|
D|5/7-7-7-5/7-7-7-5/7-7-7-7\5-5-5/7-7-7-5/7-7-7-5/7-7-7-9-7\5-4-|
A|--------------------------------------------------------------|
E|--------------------------------------------------------------|
      . .     . .     . .           . .     . .     . .

e|-------7-|
B|-------7-|
G|-------8-|
D|-7--8--9-|
A|-7--8--9-|
E|-5--6--7-|

e|----------------------------------|
B|-------------------------0--------|
G|--------9-------------------------|
D|-----9----9---9---------5---5---5-|
A|-3/7~--(7)--7---7-7\3-3--(3)--3---|
E|----------------------------------|

e|------------------------------------|
B|--------------------------0---------|
G|--------9---------------------------|
D|-----9----9---9---------5-----------|
A|-3/7~--(7)--7---7-7\3-3--(3)--3/5\3-|
E|------------------------------------|

e|-------------------------------------|
B|---------------------------3-0-------|
G|--------9----------------------------|
D|-----9----9---9---------5------5---5-|
A|-3/7~--(7)--7---7-7\3-3---(3)----3---|
E|-------------------------------------|


e|-5~-6~-5~-6~
B|-5~-6~-5~-6~
G|-6~-8~-6~-8~
D|-7~-9~-7~-9~
A|-7~-9~-7~-9~
E|-5~-7~-5~-7~

Solo!
e|--------------------------------------------14-17-16b17-14----|
B|-------------------------12b14-----------15----------------15-|
G|-------------14b16-------------12-12--------------------------|
D|-16b18-16-16-------16-16-------------/15----------------------|
A|--------------------------------------------------------------|
E|--------------------------------------------------------------|

Thats all I have for the solo. If you how to play it can you please
post it in the comments?

(Repeat 4 times)
e|---------------------------|
B|---------------------------|
G|---------------------------|
D|---------------------------|
A|-5/7-7-7-7\5-5-5-5-5/7\5/7-|
E|-3/5-5-5-5\3-3-3-3-3/5\3/5-|
       . .     .   .

Cool riff
e|-------------|
B|-------------|
G|-------------|
D|-3/5-3-3\2-2-|
A|-3/5-3-3\2-2-|
E|-------------|

e|--------------------------------|
B|----7-----7-----7---------------|
G|----7-----7-----7---------------|
D|----7-----7-----7----------7--8-|
A|----5-----5-----5-------4--7--8-|
E|3-0---3-0---3-0---3-5-3----5--6-|

(Repeat)
e|--------------------------------------------------------------|
B|--------------------------------------------------------------|
G|5/7-----5/7-----5/7-----7\5-5-5/7-----5/7-----5/7-----9-7\5-4-|
D|5/7-7-7-5/7-7-7-5/7-7-7-7\5-5-5/7-7-7-5/7-7-7-5/7-7-7-9-7\5-4-|
A|--------------------------------------------------------------|
E|--------------------------------------------------------------|
      . .     . .     . .           . .     . .     . .

And then another cool guitar solo... again please post in the comments section. :)

Please rate and comment. It would be greatly appreciated! ;)
Related for Where The River Goes tab